Black Sabbath - War Pigs, аккорды

Прокрутка
Тональность
Шрифт
100
D ~~~~~~~~~~~~~ E
--------------------|------------------------------------------
--------------------|------------------------------------------
--------------------|------------------------------------------
--------------------|------------------------/6---6/7----------
--7--------5/7----7-|--7/5-----(5)---(6)-----------------------
--0--------0------0-|--0----------------------0---0------------

D ~~~~~~~~~~~~~ E
--------------------|----------------------------------------
--------------------|----------------------------------------
--------------------|----------------------------------------
--6-----------------|------------------------/6---6/7--------
----------------5/7-|--7/5-----(5)---------------------------
--0-----(0)-------0-|--0----------------------0---0----------

D ~~~~~~~~~~~~~~~~ E7 E
--------------------|------------------------------------------
--------------------|------------------------------------------
--------------------|-------------------------4----------------
-/9------(9)--------|-----------------------------9----9-9-----
----------------5/7-|--7/5-----(5)------------5---7----7-7-----
--0-------------0---|--0----------------------0---0----0-0-----

D5 E5 D5
---------------------------|-----------------------------------
---------------------------|-----------------------------------
--9------------------------|-----------------------------------
--9-----9-9-9/7---(7)-7-7--|-7/9----------9-9--9/7--------(7)--
--7-----7-7-7/5-------5-5--|-5/7----------7-7--7/5-------------
--0------------------------|-----------------------------------
 
 

Видео