Black Sabbath - After Forever, аккорды

Прокрутка
Тональность
Шрифт
100
-------------------------------------------------------------------------|
-------------------------------------------------------------------------|
-------------------------------------------------------------------------|
--9h11---9--------7-----7h9-----7---0--2.----0---2----2.---2---4----7.---|
--0------0--------0-----0-------0---0--0.----0---0----0.---0---0----0.---|
-------------------------------------------------------------------------|
 
-------------------------------------------------------------------------|
-------------------------------------------------------------------------|
-------------------------------------------------------------------------|
--7-----7---9.-------9h11p7---7.----9---7---7.----7---7------------------|
--0-----0---0.-------0--------0.----0---0---0.----0---0------------------|
-------------------------------------------------------------------------|
 
 

Видео