Black Sabbath - Tomorrow's Dream, аккорды

Прокрутка
Тональность
Шрифт
100
A D E E E D/E D/E (A) E E E
----------------------------------------------------
----------------------------------------------------
----------------------------------------------------
----------------------------------------------------
--7---12----14-14-14-12/14-12/14(7)-12-12-12-------
--5---10----12-12-12-10/12-10/12(5)-10-10-10-------
{drag} {....slight p.m....} d u d
{fast}
 
A D E E E D/E D/E (A) E E E
----------------------------------------------------
----------------------------------------------------
----------------------------------------------------
----------------------------------------------------
-7-12-14-14-14-12/14-12/14(7)-12-12-12-------------
-5-10-12-12-12-10/12-10/12(5)-10-10-10-------------
{....slight p.m....} d u d
{fast}

A D E E E D/E D/E (A) E E E
----------------------------------------------------
----------------------------------------------------
----------------------------------------------------
----------------------------------------------------
-7-12-14-14-14-12/14-12/14(7)-12-12-12-------------
-5-10-12-12-12-10/12-10/12(5)-10-10-10-------------
{....slight p.m....} d u d
{fast}

A D E E E D/E D/E (A) E E E
----------------------------------------------------
----------------------------------------------------
----------------------------------------------------
----------------------------------------------------
-7-12-14-14-14-12/14-12/14(7)-12-12-12-------------
-5-10-12-12-12-10/12-10/12(5)-10-10-10-------------
{....slight p.m....} d u d Well
{fast}

E E E E E E E E E E E D D C#/
-----------------------------------------------------
-----------------------------------------------------
-----------------------------------------------------
-----------------------------------------------------
-14-14-14-14-14-14-14-14-14-14-14-12-12--11/---------
-12-12-12-12-12-12-12-12-12-12-12-10-10--9-/---------
{..............pm................} d u
I'm leaving tomorrow at day break Catch the

E E E E E E E E E E E D D C#/
-----------------------------------------------------
-----------------------------------------------------
-----------------------------------------------------
-----------------------------------------------------
-14-14-14-14-14-14-14-14-14-14-14-12-12--11/---------
-12-12-12-12-12-12-12-12-12-12-12-10-10--9-/---------
{..............pm................} d u
fastest trailer I find. Yes

E E E E E E E E E E E D D C#/
-----------------------------------------------------
-----------------------------------------------------
-----------------------------------------------------
-----------------------------------------------------
-14-14-14-14-14-14-14-14-14-14-14-12-12--11/---------
-12-12-12-12-12-12-12-12-12-12-12-10-10--9-/---------
{..............pm................} d u
I'm leaving this sorrow and heart ache,

E E E E E E E E E E E
-------------------------------------
-------------------------------------
-------------------------------------
-------------------------------------
-14-14-14-14-14-14-14-14-14-14-14----
-12-12-12-12-12-12-12-12-12-12-12----
{..............pm................}
Before it takes me away from my mind.

D C# D D D D
------------------------------------------------
------------------------------------------------
------------------------------------------------
------------------------------------------------
-12--11--12---12---12-12--0-3p2p0-3p2p0-3p2p0---
-10--9---10---10---10-10------------------------

D D D D
----------------------------------------
----------------------------------------
----------------------------------------
----------------------------------------
-12---12---12-12--0-3p2p0-3p2p0-3p2p0---
-10---10---10-10------------------------

E E E E E E E E E E E D D C#/
-----------------------------------------------------
-----------------------------------------------------
-----------------------------------------------------
-----------------------------------------------------
-14-14-14-14-14-14-14-14-14-14-14-12-12--11/---------
-12-12-12-12-12-12-12-12-12-12-12-10-10--9-/---------
{..............pm................} d u

E E E E E E E E E E E D D C#/
-----------------------------------------------------
-----------------------------------------------------
-----------------------------------------------------
-----------------------------------------------------
-14-14-14-14-14-14-14-14-14-14-14-12-12--11/---------
-12-12-12-12-12-12-12-12-12-12-12-10-10--9-/---------
{..............pm................} d u

E E E E E E E E E E E D D C#/
-----------------------------------------------------
-----------------------------------------------------
-----------------------------------------------------
-----------------------------------------------------
-14-14-14-14-14-14-14-14-14-14-14-12-12--11/---------
-12-12-12-12-12-12-12-12-12-12-12-10-10--9-/---------
{..............pm................} d u
Send

E E E E E E E E E E E D D C#/
-----------------------------------------------------
-----------------------------------------------------
-----------------------------------------------------
-----------------------------------------------------
-14-14-14-14-14-14-14-14-14-14-14-12-12--11/---------
-12-12-12-12-12-12-12-12-12-12-12-10-10--9-/---------
{..............pm................} d u
me love and I may let you see me Send me

E E E E E E E E E E E D D C#/
-----------------------------------------------------
-----------------------------------------------------
-----------------------------------------------------
-----------------------------------------------------
-14-14-14-14-14-14-14-14-14-14-14-12-12--11/---------
-12-12-12-12-12-12-12-12-12-12-12-10-10--9-/---------
{..............pm................} d u
hope that could spin in my head But

E E E E E E E E E E E D D C#/
-----------------------------------------------------
-----------------------------------------------------
-----------------------------------------------------
-----------------------------------------------------
-14-14-14-14-14-14-14-14-14-14-14-12-12--11/---------
-12-12-12-12-12-12-12-12-12-12-12-10-10--9-/---------
{..............pm................} d u
if you really want me to answer I

E E E E E E E E E E E
-------------------------------------------
-------------------------------------------
-------------------------------------------
-------------------------------------------
-14-14-14-14-14-14-14-14-14-14-14----------
-12-12-12-12-12-12-12-12-12-12-12----------
{..............pm................}
could only let you know when I'm dead.

A D E E E D/E D/E (A) E E E
----------------------------------------------------
----------------------------------------------------
----------------------------------------------------
----------------------------------------------------
--7---12----14-14-14-12/14-12/14(7)-12-12-12-------
--5---10----12-12-12-10/12-10/12(5)-10-10-10-------
{drag} {....slight p.m....} d u d
{fast}

A D E E E D/E D/E (A) E E E
----------------------------------------------------
----------------------------------------------------
----------------------------------------------------
----------------------------------------------------
-7-12-14-14-14-12/14-12/14(7)-12-12-12-------------
-5-10-12-12-12-10/12-10/12(5)-10-10-10-------------
{....slight p.m....} d u d
{fast}

A D E E E D/E D/E (A) E E E
----------------------------------------------------
----------------------------------------------------
----------------------------------------------------
----------------------------------------------------
-7-12-14-14-14-12/14-12/14(7)-12-12-12-------------
-5-10-12-12-12-10/12-10/12(5)-10-10-10-------------
{....slight p.m....} d u d
{fast}

A D E E E D/E D/E (A) E E E
----------------------------------------------------
----------------------------------------------------
----------------------------------------------------
----------------------------------------------------
-7-12-14-14-14-12/14-12/14(7)-12-12-12--12---------
-5-10-12-12-12-10/12-10/12(5)-10-10-10--10---------
{....slight p.m....} d u d
{fast}

D D A# A#
-------------------------------------------------------------------
----8p7------8p7--8p7-------------11p10---------11p10---11p10------
---7---7----7---7----7----------10-----10-----10-----10------10----
--7--------7------------------10------------10---------------------
-5--------5------------------8-------------8-----------------------
-------------------------------------------------------------------
(Guitar 1)

-------------------------------------------------------------------
-------------------------------------------------------------------
--7------7-------7/----------10-----------10-----------------------
--7------7-------x-----------x------------x------------------------
--5------5-------5/----------8------------8------------------------
-------------------------------------------------------------------
(Guitar2)
When sadness dills my days It's time to turn away

D D A# A#
-------------------------------------------------------------------
----8p7------8p7--8p7-------------11p10---------11p10---11p10------
---7---7----7---7----7----------10-----10-----10-----10------10----
--7--------7------------------10------------10---------------------
-5--------5------------------8-------------8-----------------------
-------------------------------------------------------------------
(Guitar 1)
D D/ C6
-------------------------------------------------------------------
-------------------------------------------------------------------
-------------------------------------------------------------------
-7-------------7/-----------10~~~----------------------------------
-5-------------5/-----------10~~~----------------------------------
-------------------------------------------------------------------
(Guitar 2)
And then tomorrow's dreams Become reality to

D C# D D D D
------------------------------------------------
------------------------------------------------
------------------------------------------------
------------------------------------------------
-12--11--12---12---12-12--0-3p2p0-3p2p0-3p2p0---
-10--9---10---10---10-10------------------------
to me!!
D D D D
----------------------------------------
----------------------------------------
----------------------------------------
----------------------------------------
-12---12---12-12--0-3p2p0-3p2p0-3p2p0---
-10---10---10-10------------------------

Some insturment does a "rising" note throughout the lead, but I'm not sure
if it is a keyboard or a guitar.

SOLO (In D)
-----------------------------------------------------
-----------------------------------------------------
----------------------------------------7-9~~~-------
-----5-5--------5-5---------5-5------5/9-------------
-5h7----7~--5h7----7~~~~-5h7---7~-5h7----------------
-----------------------------------------------------

-----------------------------------------------------------------------
-----------------------------------------------------------------------
-9^11r9-7-7h9p7------------------------------7-------------------------
---------------9-7-5---------5-5--------(5)/9-9-5-7-7-5-------5-5------
---------------------7~~--5h7---7~--5h7----------------7--5h7----7~~---
-----------------------------------------------------------------------

D C# D D D D
------------------------------------------------
------------------------------------------------
------------------------------------------------
------------------------------------------------
-12--11--12---12---12-12--0-3p2p0-3p2p0-3p2p0---
-10--9---10---10---10-10------------------------

D D D D
----------------------------------------
----------------------------------------
----------------------------------------
----------------------------------------
-12---12---12-12--0-3p2p0-3p2p0-3p2p0---
-10---10---10-10------------------------
Right!

E E E E E E E E E E E D D C#/
-----------------------------------------------------
-----------------------------------------------------
-----------------------------------------------------
-----------------------------------------------------
-14-14-14-14-14-14-14-14-14-14-14-12-12--11/---------
-12-12-12-12-12-12-12-12-12-12-12-10-10--9-/---------
{..............pm................} d u
 
 

Видео