Black Sabbath - Fine, аккорды

Прокрутка
Тональность
Шрифт
100
E|-------------------------------------------------------|
B|---------------------------------------(8)/10~-8~-7----|
G|----(5)/7~-5~--7/9~-7~--4h5h7---7~-5~--------------7~~-|
D|---------------------7---------------------------------|
A|5-5--------------------------5-------------------------|
E|-------------------------------------------------------|
{Guitar with chourse)
 
E|-------------------------------------------------------|
B|---------------------------------------(8)/10~-8~-7----|
G|----(5)/7~-5~--7/9~-7~--4h5h7---7~-5~--------------7~~-|
D|---------------------7---------------------------------|
A|-5---------------------------5-------------------------|
E|-------------------------------------------------------|
{Guitar with chourse)

E|-------------------------------------------------------|
B|---------------------------------------(8)/10~-8~-7----|
G|----(5)/7~-5~--7/9~-7~--4h5h7---7~-5~--------------7~~-|
D|---------------------7---------------------------------|
A|-5---------------------------5-------------------------|
E|-------------------------------------------------------|
{Guitar with chourse)
Some day you will have to choose, doesn't really matter, 
I'll be fine

E|-------------------------------------------------------|
B|---------------------------------------(8)/10~-8~-7----|
G|----(5)/7~-5~--7/9~-7~--4h5h7---7~-5~--------------7~~-|
D|---------------------7---------------------------------|
A|-5---------------------------5-------------------------|
E|-------------------------------------------------------|
{Guitar with chourse)

E|-------------------------------------------------------|
B|---------------------------------------(8)/10~-8~-7----|
G|----(5)/7~-5~--7/9~-7~--4h5h7---7~-5~--------------7~~-|
D|---------------------7---------------------------------|
A|-5---------------------------5-------------------------|
E|-------------------------------------------------------|
{Guitar with chourse)
There will be this love inside me, doesn't really matter, 
I'll be fine

E|-------------------------------------------------------|
B|---------------------------------------(8)/10~-8~-7----|
G|----(5)/7~-5~--7/9~-7~--4h5h7---7~-5~--------------7~~-|
D|---------------------7---------------------------------|
A|-5---------------------------5-------------------------|
E|-------------------------------------------------------|
{Guitar with chourse)
Oh,oo

BRIDGE:
E|------------------------------------------------------------------|
B|------------------------------------------------------------------|
G|--7---5---4---2--(0)-2-2h4 tr~~----7----5---4---2--(0)-2-2h4 tr~~-|
D|------------------------------------------------------------------|
A|5--------------------------------5--------------------------------|
E|------------------------------------------------------------------|
{Guitar with chourse)
Living with this indecision, I will keep on belivin', 
I'll be fine.

E|-------------------------------------------------------|
B|---------------------------------------(8)/10~-8~-7----|
G|----(5)/7~-5~--7/9~-7~--4h5h7---7~-5~--------------7~~-|
D|---------------------7---------------------------------|
A|-5---------------------------5-------------------------|
E|-------------------------------------------------------|
{Guitar with chourse)

E|-------------------------------------------------------|
B|---------------------------------------(8)/10~-8~-7----|
G|----(5)/7~-5~--7/9~-7~--4h5h7---7~-5~--------------7~~-|
D|---------------------7---------------------------------|
A|-5---------------------------5-------------------------|
E|-------------------------------------------------------|
{Guitar with chourse)
I was here to let you in, I will let you go, I'll be fine

E|-------------------------------------------------------|
B|---------------------------------------(8)/10~-8~-7----|
G|----(5)/7~-5~--7/9~-7~--4h5h7---7~-5~--------------7~~-|
D|---------------------7---------------------------------|
A|-5---------------------------5-------------------------|
E|-------------------------------------------------------|
{Guitar with chourse)
Oh, Oh, oo, oo

E|-------------------------------------------------------|
B|---------------------------------------(8)/10~-8~-7----|
G|----(5)/7~-5~--7/9~-7~--4h5h7---7~-5~--------------7~~-|
D|---------------------7---------------------------------|
A|-5---------------------------5-------------------------|
E|-------------------------------------------------------|
{Guitar with chourse)
I will tell you "Walk on in", some day you will see, 
that I'll be fine

E|-------------------------------------------------------|
B|---------------------------------------(8)/10~-8~-7----|
G|----(5)/7~-5~--7/9~-7~--4h5h7---7~-5~--------------7~~-|
D|---------------------7---------------------------------|
A|-5---------------------------5-------------------------|
E|-------------------------------------------------------|
{Guitar with chourse)
Oh, yeah

BRIDGE
E|------------------------------------------------------------------|
B|------------------------------------------------------------------|
G|--7---5---4---2--(0)-2-2h4 tr~~----7----5---4---2--(0)-2-2h4 tr~~-|
D|------------------------------------------------------------------|
A|5--------------------------------5--------------------------------|
E|------------------------------------------------------------------|
{Guitar with chourse)
There's a rose in England's Garden, 
to paint a perfect picture story

E|------------------------------------------------------------------|
B|------------------------------------------------------------------|
G|--7---5---4---2--(0)-2-2h4 tr~~----7----5---4---2--(0)-2-2h4 tr~~-|
D|------------------------------------------------------------------|
A|5--------------------------------5--------------------------------|
E|------------------------------------------------------------------|
{Guitar with chourse)
Living in the masqurade, and try to change my life

CHORUS:
E|------------------------------------------|
B|------------------------------------------|
G|------------------------------------------|
D|------------------------------------------|
A|------5---------------------------------5-|
E|3---5----------------------------3---55---|
(Chourse off)
I saw you in the paper, I got you in my head

E|--------------------------------------------------------------------|
B|--------------------------------------------------------------------|
G|---------------------------------------------------9-7---7----------|
D|------------------------------------------------------9-7-9-7~~(5)--|
A|------5---------------------------------5---------------------------|
E|3---5---------------------------3-3--55-----------------------------|
{slight pm}
And now I'm getting better, you know it can't be bad

E|------------------------------------------|
B|------------------------------------------|
G|------------------------------------------|
D|------------------------------------------|
A|------5---------------------------------5-|
E|3---5----------------------------3---55---|
They're gonna make a movie, about the life I led

E|----------------------------------------------------------------|
B|----------------------------------------------------------------|
G|------------------9-7---7---------------------------------------|
D|---------------------9-7-9-7~~(5)--------------------------(x)--|
A|--------5-----------------------------------5---------------(x)-|
E|3-3---5------------------------------33---5---------------------|
{slight pm}
And I will see you later 'Cause I've been feelin' sad, I'll be

E|-----------------------------15^(18~~))--15^(18s`15)-18p15p12--15^(18~~)-|
B|-15~~~--15/15-15~~--15---------------------------------------------------|
G|-------------------------------------------------------------------------|
D|-------------------------------------------------------------------------|
A|-------------------------------------------------------------------------|
E|-------------------------------------------------------------------------|
{Guitar 1}

D D
E|--------------------------------|
B|--------------------------------|
G|--------------------------------|
D|-7----------------------------7-|
A|-5----------------------------5-|
E|--------------------------------|
{Guitar 2}
Fine Fine

E|18p15p12--15^(18~~)---18p15p12--15^(188~~)-----18p15p12--15^(18~~)-|
B|-------------------------------------------------------------------|
G|-------------------------------------------------------------------|
D|-------------------------------------------------------------------|
A|-------------------------------------------------------------------|
E|-------------------------------------------------------------------|
(Guitar 1) {...................Fade out.................}

D
E|----------------------|
B|----------------------|
G|----------------------|
D|-7--------------------|
A|-5-------- {Let ring}-|
E|----------------------|
(Guitar 2)
Fine

E|-------------------------------------------------------|
B|---------------------------------------(8)/10~-8~-7----|
G|----(5)/7~-5~--7/9~-7~--4h5h7---7~-5~--------------7~~-|
D|---------------------7---------------------------------|
A|-5---------------------------5-------------------------|
E|-------------------------------------------------------|
{Guitar with chourse)
You don't need to understand, you don't even know me, 
I'll be fine

E|-------------------------------------------------------|
B|---------------------------------------(8)/10~-8~-7----|
G|----(5)/7~-5~--7/9~-7~--4h5h7---7~-5~--------------7~~-|
D|---------------------7---------------------------------|
A|-5---------------------------5-------------------------|
E|-------------------------------------------------------|
{Guitar with chourse)
Ohhh

E|-------------------------------------------------------|
B|---------------------------------------(8)/10~-8~-7----|
G|----(5)/7~-5~--7/9~-7~--4h5h7---7~-5~--------------7~~-|
D|---------------------7---------------------------------|
A|-5---------------------------5-------------------------|
E|-------------------------------------------------------|
{Guitar with chourse)
So open up your simple life, the universe is waiting, 
I'll be fine

E|-------------------------------------------------------|
B|---------------------------------------(8)/10~-8~-7----|
G|----(5)/7~-5~--7/9~-7~--4h5h7---7~-5~--------------7~~-|
D|---------------------7---------------------------------|
A|-5---------------------------5-------------------------|
E|-------------------------------------------------------|
{Guitar with chourse)
Ohh, yeah

BRIDGE:
E|------------------------------------------------------------------|
B|------------------------------------------------------------------|
G|--7---5---4---2--(0)-2-2h4 tr~~----7----5---4---2--(0)-2-2h4 tr~~-|
D|------------------------------------------------------------------|
A|5--------------------------------5--------------------------------|
E|------------------------------------------------------------------|
{Guitar with chourse)
There's a rose in England's Garden, 
to paint a perfect picture story

E|-----------------------------------------------------------------------------|
B|-----------------------------------------------------------------------------|
G|--7---5---4---2--(0)-2-2h4 tr~~----7----5--4--2--(0)-2-2h4 tr~~--------------|
D|-----------------------------------------------------------------------------|
A|5--------------------------------5-------------------------------------------|
E|-----------------------------------------------------------------7-5-3-2-1-0-|
{Guitar with chourse)
Living in the masqurade, and try to change my life

CHORUSE:
E|-------------------------------------------|
B|-------------------------------------------|
G|-------------------------------------------|
D|-------------------------------------------|
A|------5----------------------------------5-|
E|3---5----------------------------3-3---5---|
(Chourse off)
I saw you in the paper, I got you in my head

E|--------------------------------------------------------------------|
B|--------------------------------------------------------------------|
G|---------------------------------------------------9-7---7----------|
D|------------------------------------------------------9-7-9-7~~(5)--|
A|-----5---------------------------------5----------------------------|
E|3--5---------------------------3-3--5-------------------------------|
{slight pm}
And now I'm getting better, you know it can't be bad

E|------------------------------------------|
B|------------------------------------------|
G|------------------------------------------|
D|------------------------------------------|
A|------5---------------------------------5-|
E|3---5----------------------------3---55---|
(Chourse off)
They're gonna make a movie, about the life I led

E|-------------------------------------------------------|
B|-------------------------------------------------------|
G|--------------------------9-7---7----------------------|
D|-----------------------------9-7-9-7~~~(5)-------------|
A|--------5--------------------------------------------5-|
E|-3-3--5----------------------------------------3---5---|
{slight pm}
And I will see you later 'Cause I've been feelin' sad, I'll be

BRIDGE:
E|------------------------------------------------------------------|
B|------------------------------------------------------------------|
G|--7---5---4---2--(0)-2-2h4 tr~~----7----5---4---2--(0)-2-2h4 tr~~-|
D|------------------------------------------------------------------|
A|5--------------------------------5--------------------------------|
E|------------------------------------------------------------------|
{Guitar with chourse)
Fine Fine

E|------------------------------------------------------------------|
B|------------------------------------------------------------------|
G|--7---5---3---2--(0)-2-2h4 tr~~----7----5---4---2--(0)-2-2h4 tr~~-|
D|------------------------------------------------------------------|
A|5--------------------------------5--------------------------------|
E|------------------------------------------------------------------|
{Guitar with chourse)
Fine Fine
It's you that completes me I hope you won't leave me

E|------------------------------------------------------------------|
B|------------------------------------------------------------------|
G|--7---5---4---2--(0)-2-2h4 tr~~----7----5---4---2--(0)-2-2h4 tr~~-|
D|------------------------------------------------------------------|
A|5--------------------------------5--------------------------------|
E|------------------------------------------------------------------|
{Guitar with chourse)
Fine Fine
Hey, eee,eeeeeeee

E|------------------------------------------------------------------|
B|------------------------------------------------------------------|
G|--7---5---4---2--(0)-2-2h4 tr~~----7----5---4---2--(0)-2-2h4 tr~~-|
D|------------------------------------------------------------------|
A|5--------------------------------5--------------------------------|
E|------------------------------------------------------------------|
{Guitar with chourse)
Fine Fine
I will be fine!

E|------------------------------------------------------------------|
B|------------------------------------------------------------------|
G|--7---5---4---2--(0)-2-2h4 tr~~----7----5---4---2--(0)-2-2h4 tr~~-|
D|------------------------------------------------------------------|
A|5--------------------------------5--------------------------------|
E|------------------------------------------------------------------|
{Guitar with chourse)
Fine Fine
Hey, hey, hey I don't blame you for leavin'

E|------------------------------------------------------------------|
B|------------------------------------------------------------------|
G|--7---5---4---2--(0)-2-2h4 tr~~----7----5---4---2--(0)-2-2h4 tr~~-|
D|------------------------------------------------------------------|

A|5--------------------------------5--------------------------------|
E|------------------------------------------------------------------|
{Guitar with chourse)
Fine Fine
Ohhh, ohh Hey, hey!

E|------------------------------------------------------------------|
B|------------------------------------------------------------------|
G|--7---5---4---2--(0)-2-2h4 tr~~----7----5---4---2--(0)-2-2h4 tr~~-|
D|------------------------------------------------------------------|
A|5--------------------------------5--------------------------------|
E|------------------------------------------------------------------|
{Guitar with chourse)
Fine Fine
I hope you look inside yourself Inside!

Drums solo

E|--------------------------------------------------------|
B|--------------------------------------------------------|
G|--------------------------------------------------------|
D|--------------------------------------------------------|
A|-----------------5------------------------------------5-|
 
 

Видео