Black Sabbath - Slippin' Away, аккорды

Прокрутка
Тональность
Шрифт
100
Fig. A
|----------------------------------------------------------
|-----------------------------------------3----------------
|--2-2----2-----5-4-2-4-4-2---2-2----2----2----------------
|--2-2----2-----5-4-2-4-4-2---2-2----2----0----------------
|--0-0----0-----3-2-0-2-2-0---0-0----0---------------------
|------3^-------------------3-----3^------------3~~--------

|--------------------------| |---------------------------
|--------------------------| |---------------------------
|--7---5--------5---3------| |--------7------------7-----
|--7---5--------5---3------| |--5--7--7------5--7--7--7--
|--5---3--------3---1------| |--5--7--5------5--7--5--7--
|--------------------------| |--3--5---------3--5-----5--
back to Fig. A

|-----------------------------------------------
|-----------------------------------------------
|-----7--------------7--------------------------
|--7--7--7--------5--7--7-----------------------
|--7--5--7--------5--5--7-----3h5-3h5p3-2-------
|--5-----5--------3-----5---5-------------------

|----------------------------------------------------------
|--------------------------------------3-------------------
|--2--2-----2-------------2--2-----2---2-------------------
|--2--2-----2-------------2--2-----2---0-------------------
|--0--0-----0-------------0--0-----0-----------------------
|--------3^---------------------3^--------3^---------------
 
 

Видео