Black Sabbath - Paranoid, аккорды

Прокрутка
Тональность
Шрифт
100
-------------------------|------------------------------|---------------------
-------------------------|------------------------------|---------------------
-9--------7-------9------|-------9---7---9----7---------|---------------------
-------------------------|------------------------9-----|--5--7---5--7--------
-------------------------|------------------------------|---------------------
-------------------------|------------------------------|---------------------

---------------|----------------------------|-------------------------------|-
---------------|----------------------------|-------------------------------|-
---------------|----------------------------|-------------------7----9---9--|-
---------------|--5-------------------------|--5---7----7/--9---------------|-
--5---7----7---|------5-------------7-------|-------------------------------|-
---------------|----------------------------|-------------------------------|-

---------------------------------------|---------------------------------|----
----------8----10----10----8-----10----|-8---10--------8-----------------|----
-7/--9---------------------------------|-------------------9-----9-------|----
---------------------------------------|---------------------------------|----
---------------------------------------|---------------------------------|----
---------------------------------------|---------------------------------|----

-------------------------------12--------|----------------------------------|-
------------------------12---------15----|-15-----------15--------15------12|-
-7---9---9----9/---14--------------------|----------------------------------|-
-----------------------------------------|----------------------------------|-
-----------------------------------------|----------------------------------|-
-----------------------------------------|----------------------------------|-

-15-----15-----15-------12-----15----12---------------|-15--12----------------
--------------------------------------------15----12--|-----------15---15-----
------------------------------------------------------|-----------------------
------------------------------------------------------|-----------------------
------------------------------------------------------|-----------------------
------------------------------------------------------|-----------------------

--------------12--------------------|---------------------------------------|-
-12------12---------15---12---------|---------------------------------------|-
----14-----------------------14-----|--14--12----------12---14----------12--|-
------------------------------------|----------14---------------------------|-
------------------------------------|---------------------------------------|-
------------------------------------|---------------------------------------|-

------------------------------------------------------|-----------------------
------------------------------------------------------|-----------------------
-14--------12--14--12-------12------------------------|-----------------------
-----------------------14--------14----14---12--------|-12--------------------
-------------------------------------------------14---|--------12---10----12--
------------------------------------------------------|-----------------------

------------------------|------------------------------------|----------------
------------------------|------------------------------------|----------------
------------------------|-------------------12---------------|----------------
------------------------|--12-------12-14----------14---12---|-14-----12------
----10-------12/---14---|------------------------------------|----------------
--------12--------------|------------------------------------|----------------

-------|----------------------------------------------------------------------
-------|----------------------------------------------------------------------
-------|----------------------------------------------------------------------
-14---|----------------------------------------------------------------------
-------|----------------------------------------------------------------------
-------|----------------------------------------------------------------------
 
 

Видео