Black Sabbath - Devil And Daughter, аккорды

Прокрутка
Тональность
Шрифт
100
Intro
|----------------------------------------------------------
|-------7-------7------------------------------------------
|-9---7-7-----7-7-----7-7---9------------------------------
|-9---5-7-----5-7-----5-7---9------------------------------
|-7-----5-------5-------5---7------------------------------
|----------------------------------------------------------

Fig. A
|----------------------------------------------------------
|----------------------------------------------------------
|--9---12--11--9--14--12--11------11--9--------------------
|--9---12--11--9--14--12--11--12--11--9--------------------
|--7---10---9--7--12--10---9--12---9--7--------------------
|-----------------------------10---------------------------

Fig. B
|------------------------------------------------------------
|------------------------------------------------------------
|----------------------------------------------------12-11---
|----------------------------------------------------12-11---
|-5h7----------------------------5---5h7-------------10--9---
|-----00000-00000-00000-00000-00---7-----00000-00000---------

Fig. C
|------------------------------||--------------------------
|------------------------------||--------------------------
|-12--11-------14--12----------||--9----7------------------
|-12--11--12---14--12--12--10--||--9----7------------------
|-10---9--12---12--10--12--10--||--7----5------------------
|---------10-----------10---8--||-----------back to Fig. B-

With solo (after Fig. B)
|---------------------------------------||-----------------------
|---------------------------------------||-----------------------
|--9-------9--7--5------5-------5--4--2-||-2------2-----------9--
|--9-------9--7--5------5-------5--4--2-||-2------2--5--3-----9--
|--7-------7--5--3------3-------3--2--0-||-0------0--5--3-----7--
|---------------------------------------||-----------3--1--------

|----------------------------------------------------------
|----------------------------------------------------------
|----------------------------------------------------------
|-----------14--12--------------14--12---------------------
|--5-7------12--10-----5-7------12--10---------------------
|----------------------------------------------------------

|---------------------------------------------------------
|---------------------------------------------------------
|-------------------------------------------------9-------
|--/7-5--4----/7-5--4---/7-5--4-------------------9-------
|----------7----------7---------7--5--------------7-------
|------------------------------------8--7-5--3-1----------
 
 

Видео