Black Sabbath - Sweetleaf, аккорды

Прокрутка
Тональность
Шрифт
100
Alright now...
||--------------------------------------------------||-------
||--------------------------------------------------||-------
||----------5-4-3--3-3-5----------5-4-3--3/12b-12b--||-------
||--5--5-----------------5--5-----------------------||-5-----

--------------------------------------------------------9--7-
----------------7-7--7--7-7-7-5------------------------------
-------3--7---------------------7--------------3--7----------
--3----------5--------------------5-------3----------5-------

-5-----------------------------------------------------------
-----7-5------------------------------7-7--7--7-7-5----------
---------7-5-3---------------3--7-------------------7-5------
----------------5-------3----------5---------------------5---

-------------------------------------||----------------------
------------------7-7--7--7-7-7-5----||----------------------
---------3--7---------------------7--||----------------------
----3----------5---------------------||-5------5------5-----5

-------------------------------------------------------------
---------9----------------9-------9---------11-11-11-11-11-11
-------9----------------9---9---9---9-----11-----------------
-----7-----7-7-7-7-7--7-------7-------7-9--------------------

-------------------------------------------------------------
-11-11-11-11-11-11-----9----------------9-------9----------11
---------------------9----------------9---9---9---9-----11---
-------------------7-----7-7-7-7-7--7-------7-------7-9------

-------------------------------------------------------------
--13--11-9----9-11-9--------9----------------9-------9-------
-----------11--------11---9----------------9---9---9---9-----
------------------------7-----7-7-7-7-7--7-------7-------7-9-

-------------------------------------------------------------
-11-11-11-11-11-11-11-11-11-11-11-11-11-11-11-11-11----------
-------------------------------------------------------------
----------------------------------------------------9-9-9-9-9

-----------------------------------------------------------||
-----------------------------------------------------------||
-----------------------------------------------------------||
9-9-9-9-9-9-9--7-9--------7-9--------7-9------7-9----------||
Solo(not actual Geezer solo...but an example)
-------------------------------------------------------------
---9-7-------7---9-7---------------9-7---7-9-11-9-7---7------
-------9-7-9---9-----9-7---7-----------9------------9---9-7--
-9-----------------------9---9-7-9--------------------------9

-------------------------------------------------------------
-----9-7-------7---9-7---------------------------------------
-7-------9-7-9---9-----9-7---7-----/4----------/4-------/4---
---9-----------------------9---9-7----5-4-3-------5-4-3----5-

--------||b=bend
--------||/=slide up
--------||=slide down
-4-3----||
 
 

Видео