Black Sabbath - Odin's Court, аккорды

Прокрутка
Тональность
Шрифт
100
Intro & riff1
e|-------------------|------------------|
B|-------------------|--------1/3-------|
G|-----0-2/4--0--2---|-----0------2-4-0-|
D|---2-------------4-|---2--------------|
A|-------------------|------------------|
E|-0-----------------|-0----------------|
As you walk along, the night

e|-------------------|------------------|
B|-------------------|------------------|
G|-----0--2/4--0-2---|-----0---2/4------|
D|---2-------------4-|---2--------------|
A|-------------------|------------------|
E|-0-----------------|-0----------------|
surrounds you...

Riff2:
e|-5-5-5---2---2---0---0-0----0-------------------|
B|-7-7-7---3---3---0---1-1------0-1---------------|
G|-7-7-7---4---2---0---2-2-----------2------------|
D|-7-7-7---4---0---2---2-2------------------------|
A|-5-5-5---2---0---2---0-0------------------------|
E|-5-5-5---2-------0---0-0------------------------|
Leading..
.. ..... ..

e|-5-5-5---2---2---0---0-0----0-------------------|
B|-7-7-7---3---3---0---1-1------1-----------------|
G|-7-7-7---4---2---0---2-2--------2---------------|
D|-7-7-7---4---0---2---2-2----------2-------------|
A|-5-5-5---2---0---2---0-0------------------------|
E|-5-5-5---2-------0---0-0------------------------|
 
 

Видео