Black Sabbath - Turn To Stone, аккорды

Прокрутка
Тональность
Шрифт
100
|-----------------------------------3-3--------------------
|-----------------------------------3-3--------------------
|---2--/5-7-5h7p5---2--/5-7-5h7p5---2-2-2------------------
|---2--/5-7-5h7p5---2--/5-7-5h7p5-0-----0------------------
|-0---------------0-----------------------3-2-0------------
|----------------------------------------------------------

"Ain't no use in ..."
|----------------------------------------------------------
|----------------------------------------------------------
|----------------------------------------------------------
|-5-5-5-5-5-5-5-9-9-9-9-9-9-9---------------5-5-5-5-5-5-5--
|-3-3-3-3-3-3-3-7-7-7-7-7-7-7-5-5-5-5-5-5-5-3-3-3-3-3-3-3--
|-----------------------------3-3-3-3-3-3-3----------------
"just one look and the..." "..heart into stone"
|----------------------------------------------------------
|----------------------------------------------------------
|----------------------------------------------------------
|---------------7-7-7-7-7-7-7------------------------------
|-7-7-7-7-7-7-7-5-5-5-5-5-5-5-3-3-3-3-3-3-3--5--5--5--5--5-
|-5-5-5-5-5-5-5---------------1-1-1-1-1-1-1--3--3--3--3--3-

|----------------------------------------------------------
|----------------------------------------------------------
|-------------------5~------------------------5~-----------
|-------5~-7------------7--------5~--7-----------7---------
|-0--0--------0--0---------0--0---------0--0---------------
|----------------------------------------------------------
 
 

Видео