Black Sabbath - Am I Going Insane, аккорды

Прокрутка
Тональность
Шрифт
100

Am I Going Insane - Bass
 Black Sabbath - Sabotage (1975)
 
 
      ---------------------------------------------
      --------------9---9---9---9---9------7---7---
      ||---5--7----------3--5----------5--7---7---7---7---7---3--5---5---5-
      ---------------------------------------------
 
                 Everybody`s looking at me...            
      ---------------------------------------------
      ---7---7-||---9---9---9---9---9---10---10---10---10---10---9---9---9-
      -5---5---||-7---7---7---7---7---8----8----8----8----8----7---7---7---
      ---------------------------------------------
 
                                     Tell me people am I going insane?...
      ---------------------------------------------
      ---9---9---7---7---7---7---7-||---5---5---5---5---5-3-5-3-0---7---7--
      -7---7---5---5---5---5---5---||-3---3---3---3---3-----------5---5---5
      ---------------------------------------------
 
 
      -------------------------------9---------------9-----||Look out, 
      -7---7---7-5-7-5-0---9---9---9---9---9---9---9---9---||Geezer really 
      ---5---5-----------7---7---7-------7---7---7-------7-||crazy on this
      -----------------------------------------------------||song.