Black Sabbath - Back To Eden, аккорды

Прокрутка
Тональность
Шрифт
100

Back To Eden
 Black Sabbath - Cross Purposes
 
 
 -----------------------------------------------
 -----------------------------------------------
 -----------------------------------------------
 --------------5------------------------5-------
 |----7-5h7--------------5---7-----7-5h7--------------7-----
 |--0-------6-5----5-6-7---------0-------6-5----5-6---------
 
 
 -----------------------------------------------
 -----------------------------------------------
 ----------------------------------------7-7-7--
 --------------5-------------------------5-5-5--
 |----7-5h7--------------5---7-----7-5h7--------------------
 |--0-------6-5----5-6-7---------0-------6-5-----5-6--------
 
 
 when you`re tired of...
 |-2---2---2-----------------2---2---2-------------------
 |-3---3---3-----------5^^5--3---3---3-------------------
 |-2---2---2----3---5--------2---2---2----3---2----------
 |-0---0---0----3---5--------0---0---0----3---2----------
 ---1---3---------------------1---0----------
 --------------------------------------------
 
 
 -------------------------------------------------
 -------------------------------------------------
 |--6-----6-8-9-8-6------------6-8-9-8-6----------------9-8---
 |--6---6----------7--------6-----------7---9-9/11-9---------
 |--4---------------------------------------------------------
 -------------------------------------------------