Black Sabbath - Born To Lose, аккорды

Прокрутка
Тональность
Шрифт
100
Born To Lose
 Black Sabbath - The Eternal Idol (1987)
 
 
 Fig A
 |----------------------------------------------------------
 |----------------------------------------------------------
 |---4h5---4h5---4h5---4h5----/7-7-7-7-7---/5-5-5-/54-2--
 |---4h5---4h5---4h5---4h5----/7-7-7-7-7---/5-5-5-/54-2--
 |-0-----0-----0-----0--------------------------------------
 |----------------------------------------------------------
 
 "You think.."
 |----------------------------------------------------------
 |----------------------------------------------------------
 |---------2-5-4~--------4h5-2~~----------------------------
 |---2-3-5--------------------------------------------------
 |-3--------------------------------------------------------
 |----------------------------------------------------------
   C           G         F         C      back to fig A
 
 
 
 |----------------------------------------------------------
 |----------------------------------------(let ring)--------
 |---------2-5-4~------4h5-2~---/4--5--7--9~~-
 
 

Видео