Black Sabbath - Buried Alive, аккорды

Прокрутка
Тональность
Шрифт
100

Buried Alive
 Black Sabbath - Dehumanizer (1992)
 
 
 ---------------------------------------------------
 ---------------------------------------------------
 ---------------------------------------------------
 ---------------------------------------------------
 |-4-3-2-3-4-3-2-3-4-3-2-3-4-5----4-3-2-3-4-3-2-3-4-3-2-3-4-5---
 |-2-1-0-1-2-1-0-1-2-1-0-1-2-3----2-1-0-1-2-1-0-1-2-1-0-1-2-3---
 
 
 -----------------------------------------------------
 -----------------------------------------------------
 --------------------------------------------------4--
 --------------------------------------------------4--
 |-------6---7-------6-----7p6----------6---7-------6-------7p6---
 |--4--4---4---4-4-4---4-4-----7p6-4--4---4---4-4-4---4-4-4-------
 
 
 --------------------------------------------------
 --------------------------------------------------
 |---9--------5----4--2----7----9------9-----5---4-2----7---9--
 |---9--------5----4--2----7----9------9-----5---4-2----7---9--
 |---7--------3----2--0----5----7------7-----3---2-0----5---7--
 --------------------------------------------------
 
 
 ------------------------
 ------------------------
 |--7--6--5---5----5-----5-----------
 |--7--6--5---3-4---3-5---3-7--------
 |--5--4--3-----2-----3-----5--------
 ------------------------