Black Sabbath - Changes, аккорды

Прокрутка
Тональность
Шрифт
100
Tune down 1 1/2 steps
 
 E|--------5---------7--7----7--5--
 B|------7-----------8--8----8--7--
 G|----7-------------9--9----9--7--
 D|---------------------0----------
 A|--0-----------0-----------------
 D|----------0---------------------
 
 E|--------5---------0----0----------------------7--7---5--
 B|------7-----------0----0------------0---------8--8---7--
 G|----7-------------0----0----------0-----------9--9---7--
 D|------------------2----2--------2-------------0---------
 A|--0-----------2---------------------------0-------------
 D|----------2-------------------2-------0-----------------
  
 	        im going...
 E|--------5-------------3--------------------------------------0-----
 B|------7------------3-----3--------------2-----------------0-----0--
 G|----7-----------4-----------4--------2--------2--------0-----------
 D|-------------5--------------------4--------4--------2--------2-----
 A|--0----------------------------------------------------------------
 D|----------5--------------------4-----------------2-----------------
  
 E|--------------0-------------------------------------------
 B|-----------0-----0-----------5--5-----------------3-------
 G|--------0-----------------6--------6-----------4-----4----
 D|--------------2--------7--------------7-----5-----------5-
 A|--------2-----------------------7--------------------5----
 D|--2-----------------7--------------------5----------------
 
 E|--------------2---------------------------------------2--
 B|-----------3-----3----3-------5--------5-----------3--3--
 G|--------2-------------4-------------6-----------4-----4--
 D|-----4----------------4----------7-----------4--------4--
 A|--2-------------------2-------0-----------2-----------2--
 D|---------------------------------------------------------
  
 E|-----------2--------7--7--5---------------5--------7--7--5--
 B|--------3-----------8--8--7------------7-----------8--8--7--
 G|-----4--------------9--9--7---------7--------------9--9--7--
 D|--4-----------------0------------------------------0--------
 A|--2--------------0---------------0--------------0-----------
 D|--------------0------------------------------0--------------
 
 

Видео