Black Sabbath - Iron Man (btab), аккорды

Прокрутка
Тональность
Шрифт
100
Bass:
|-----------------------------------------||
|----------------------------------------||
|-7b(10)-----7b(10)-----7b(10)----7b(10)-||
|----------------------------------------||

                                           This lick goes right w/
||z---------------------------------------||----------------------
||----------------------------------------||----------------------
||-2---5--5/7-7---10-9-10-9-10---5-5/7-7/-||--------5b(6)---------
||----------------------------------------||--7--7--------7-6-5-5-

the drum roll       No body helps him    Now he has his...
------------------||-------9---7--------------------------||--------
------7-6-7-6-7---||-----9--------9-7-5----------4--5-4---||--------
---7------------7-||-7------------------5------5--------5-||--------
-5----------------||-------------------------7------------||-7-7--7-

                    Pre-Solo:                     Solo:
------------------||-----------------------------||----------------
------------7-8-9-||-11-9------------------------||----------------
-5-7--7-8-9-------||-------11-10-9-7-------------||----------------
------------------||-----------------7-7-7-9-9-9-||-9-9-9-9-9-7h9-9

----------------------------------------------------------------------
---------------------------------9-11-11-11-11-11-9h11-11-11-11-11-9h-
----------------------7---7-9-11--------------------------------------
-9-9-9-7h9-9-9-9-97h9---9---------------------------------------------

----12-11-9--------------------------------------------9-------------
-11---------12-11-9-11-11-11-11-119h11-11-11-11-119h11---11-9-7------
----------------------------------------------------------------11-9-
---------------------------------------------------------------------

--------------------------------------------------------------||-----
------------------------------9h11--9h11--9h11---9h11-9h11-11-||-11-9
-7------------------------------------------------------------||-----
---7h9--7h9--7h9---7h9-7h9-9----------------------------------||-----

                        Outro:
-----------------------||---------------------------------------------
-----------------------||---------------------------------------------
-11-10-9-7-------------||-7-7-7-7-7-7-7-7-7-7-7-7-7-7-7-7-7-7-7-7-7-7-
-----------7-7-7-9-9-9-||---------------------------------------------

---------------------------------|------------------------------------
---------------------------------|------------------------------------
-7-7-7-7-7-7-7-7-7-7-7-7-7-7-7-7-|7-5-7-7-7-7-7-7-7-5-3-5-5-5-5-5-5-5-
---------------------------------|------------------------------------

                  Geezer does different endings for this riff:
------------------|---------------------|
------------------|---------------------|
-3-2-3-3-3-3-3-3-3|-2-2-2-2-2-2-2-2-2-2-|
------------------|---------------------|

|-----------------|-----------------|---------------||
|-----------------|-----------------|---------------||
|-2-3-2---2-3-5---|-2-3-2-------3-5-|-2-3-2-3-2-3-5-||
|-------3---------|--------3-5------|---------------||
 
 

Видео