Black Sabbath - Shaking Off The Chains, аккорды

Прокрутка
Тональность
Шрифт
100

Shaking Off The Chains
 Black Sabbath - Forbidden (1995)
 
 
 -----------------------------------------------
 -----------------------------------------------
 |------7-----8-----98/98/98-7-----8-----98/98/98-----
 |------7-----8-----98/98/98-7-----8-----98/98/98-----
 |--xx--5-0-0-6-0-0-76/76/76-5-0-0-6-0-0-76/76/76-----
 |-x--------------------------------------------------------
 
 -----------------------------------------------
 -----------------------------------------------
 |-12--12-12-12--12-12-12--12-12-12-------------------------
 |-12--12-12-12--12-12-12--12-12-12-------------------------
 |-10--10-10-10--10-10-10--10-10-10-------------------------
 -----------------------------------------------
 
 ---------------------------------------------------
 ---------------------------------------------------
 ---------------------------------------------------
 |----5-6-5-5-3h5p3---3--------------5-6-5-5-3h5p3---3----------
 |-3----------------6---5h6p5---3--3---------------6---5h6p5---3
 -----------------6------------------------------6--