Black Sabbath - The Illusion Of Power, аккорды

Прокрутка
Тональность
Шрифт
100

The Illusion Of Power
 Black Sabbath - Forbidden (1995)
 
 
 ---------------------------------------------------
 ---------------------------------------------------
 |--------7-----7--9--9--7-----7--------7-----7--9--9--7-----7--
 |--9--9-----9--------------9-----9--9-----9--------------9-----
 ---------------------------------------------------
 ---------------------------------------------------
 
 
 -----------------------------------------------
 -----------------------------------------------
 |--9-------------------------------------------------------
 |--9-------------------------------------------------------
 |--7---------------------2--1------5-/7--------------------
 -------0--3--------0---------------------------
 
 
 -----------------------------------------------
 -----------------------------------------------
 -----------------------------------------------
 |-----7--6~-------5^-5~-------7--6~-------5^--5~-----------
 |--5--------7--8--------6--5--------7--8----------6--------
 -----------------------------------------------
 
 
 ------------------------------------------------
 ------------------------------------------------
 ------------------5-5-5-5-4--3-3-3-3-2----------
 |--7---7----------------------5-5-5-5-4--3-3-3-3-2--2-5-7---
 |--7---7--7--6-----6----7-----3-3-3-3-2--1-1-1-1-0--2-5-7---
 |--5---5--------7-----------------------------------0-3-5---
 
 
 -----------------------------------------------------
 -----------------------------------------------------
 -----------------------------------------------------
 -----------------------------------------------------
 ----5~~-----------2~~---------------5~~---------2~~--
 |--0---0---5/7--------0--2/3-------0---0---5/7-------0--2/3------