Black Sabbath - The Mob Rules, аккорды

Прокрутка
Тональность
Шрифт
100
Black Sabbath - Mob Rules
 The Mob Rules
 
 note: "*"s are used to represent the same note X times (listen to the song).
 % = repeat previous bar
 
 Tune down 1/2 step
 
 G-----|---------------------|------|----------------||
 D-----|-------------------5-|------|------5--4-5-4--||
 A-----|-----------3-2-3-5---|-%-(2)|-5-55-----------||
 E--1/-|--5-5-3-5------------|------|----------------||
 
    0:25                          "You`ve nothing to say..."
 G------------------------------|--------------|-------------------|
 D-------------------5----------|--------------|-------------------|
 A-----------3-2-3-5---5-55-5*--|-7*------...--|-7-77-7--5*----5--| back to
 E--5-5-3-5---------------------|--------------|-------------------| main riff
 
    solo                                     "You`ve nothing to say..."
 G----------------------------------------||------------------------------||
 D------------------------3-2-3-2---------||------------------------------||
 A--5*------1*------3*------------5*------||--5*-----------------------5--||
 E----------------------------------------||------------------------------||