Black Sabbath - Iron Man (intro), аккорды

Прокрутка
Тональность
Шрифт
100
Intro:
--------------------------------------------------------------------|
--------------------------------------------------------------------|
--------------------------------------------------------------------|
--------------------------------------------------------------------|
----2----5----5----7----7----10----9----10----9----10----5----5-----|
----0----3----3----5----5-----8----7-----8----7-----8----3----3-----|

--------------|
--------------|
--------------|
--------------|
----7----7----|
----5----5----|
 
 

Видео