Black Sabbath - A National Acrobat (btab), аккорды

Прокрутка
Тональность
Шрифт
100
Tune-down 1 1/2 steps low to high(C# F# B E)
 
G||------------------------------------------------------------|
D||--------------------------------------7h9p7-----------------|
A||-5h7-7-7--7-5h7-5h7-10-9--9-5h7-7-7-5-------5---5---5-5h7-7-|
E||----------------------------------------------7---7---------|
I am the

G|------------------------------------------------||---------|
D|-------------------------------7h9p7------------||-2---2-5-|
A|7--7-5h7-5h7-10-9--9-5h7-7-7-5-------5---5---5--||---------|
E|---------------------------------------7---7----||---------|
world that hides... Destruction of the empty... You

G|--------------------7-9-|-----------------------------||-------|
D|-5-------7------7-9-----|---------------5----5-7----7-||-------|
A|---5---5----5/7---------|-3----3-2----2----5------7---||---5h7-|
E|------------------------|----3------2-----------------||-7-----|
gotta believe me I'm talkin to

G|--------------------------------------|-----------------------|
D|-----------5--------------------------|-----------------------|
A|---5h7-5h7---7-5---5h7----------------|-------5h7-----5h7-5h7-|
E|-7---------------7--------------------|-5-6-7-------7---------|
you... 4x

G|-----------------------------||---------------------------|
D|5----------------------------||-------------8---7-5---5-|
A|--7-5---5h7------------------||-7---7-5---5---------------|
E|------7----------------------||---------------------------|
2x

G|--------------------------|-----------------------------------|
D|--------------------------|-----------------------------------|
A|--------------------------|-5h7-7-7-7-7-7-7-5h7-7-7-7-7-7-7-5-|
E|7-7-7-7-7-7-7-7-7-7-7-7-7-|-----------------------------------|

G|----------------------------------------------------------------|
D|--------------------------------5h7-7-7-7-7-7-7-5h7-7-7-7-7-7-7-|
A|-h7-7-7-7-7-7-7-5h7-7-7-7-7-7-7---------------------------------|
E---------------------------------------------------------------|
2x

G|--------------------------------||----------------------------|
D|5h7-7-7-7-7-7-7-5h7-7-7-7-7-7-7-||-7h9--9-7h9-7---------------|
A|--------------------------------||--------------9-7-5--5-5--5-|
E|--------------------------------||----------------------------|

G|-----------------------------------|-----------------------|
D|----7h9--9-7h9-7-------------------|-----------------------|
A|4-5--------------9-7-5--5-5--5-4-5-|-----------------------|
E|-----------------------------------|--7--------------7-7-|

G|--------------------------------------------------------------|
D|--------------------------------------------------------------|
A|--------------------------------------------------------------|
E|----7-7----------7-7----------7-------------7----------7-|
2x
G|-------------------------|------------------------------------|
D|-------------------------|-7-7-7-7-7-7------------------------|
A|-------------------------|-------------5-5-5-5-5-5/7--7-7-7-7-|
E|----------7-------------|------------------------------------|

G|-----------------------------------------------|------------|
D|------7-7-7-7-7-7------------------------------|------------|
A|7-7/9-------------5-5-5-5-5-5/7--7-7-7-7-7-7/9-|-5--4--5--4-|
E|-----------------------------------------------|------------|

G|---------------------------||-------------------------------|
D|---------------------------||-------------------------------|
A|-4--5--4--5--4--5--4--5--4-||-2-2-3-3-4-4-5-5-6-6-7-7-8-8-9-|
E|---------------------------||-------------------------------|

G|-----------------||h=hammer-on p=pull-off--|
D|-----------------||/=slide up =slide down-|
A|9-10-10-11-11-12-||------------------------|
E|-----------------||------------------------|
 
 

Видео