Black Sabbath - Hole In The Sky (tab), аккорды

Прокрутка
Тональность
Шрифт
100
				1--------||2------|
 ----------------------------------------||-------|
 ----------------------------------------||-------|
 ----------------------5--7--------------||--7--5-|
 |------7p5-7~----7p5-7~----7p5----5--7--||--7--5-|
 |--0-0---------0---------0-----0--3--5--||--5--3-|
 ----------------------------------------||-------|
 
 
 ---------------------------------------------------|
 ---------------------------------------------------|
 |------5^-5--------------------5^-5----------------|
 5^-5--------------------5^-5-----------------------|
 |--0-0-----------5^-5---5--0-0-----------5^-5---5--|
 --------------------------------------------------|
 
 chorus:
 ----------------------------------------------------|------------
 |--9---9p8-----9---9p8----11--11p10----11--11p10----|------------
 |-10--10p8----10--10p8----12--12p10----12--12p10----|------------
 |----------10----------10-----------10-----------10-|-10-10-10-9-
 ----------------------------------------------------|-10-10-10-9-
 ----------------------------------------------------|--8--8--8-7-
 
 solo:
 ---------------------------------------------------------
 ---------------------------------------------------------
 |--7^-7^-7^------7p5-7-7^-7^-7^------7p5---^7-^7-^7-5----
 -----------------------------7------------7--------------
 ---------------------------------------------------------
 ---------------------------------------------------------
 
 |------5------5------5------------------------8-10^------
 |----5------5------5---8^-8^-8^-8^-------8-10------------
 |--7^----7^-----7^---------------------------------------
 ---------------------------------------------------------
 ---------------------------------------------------------
 ---------------------------------------------------------
 
 |------8-^10-8------8-10^-10^-10^-8-10-8---------8-10^10^10^-^10-8--
 |-8-10---------8-10-------------------------8-10--------------------
 --------------------------------------------------------------------
 --------------------------------------------------------------------
 --------------------------------------------------------------------
 --------------------------------------------------------------------
 
 |----13^13^13^13^13^13^13^13^13^13^13^13^-13^-13^-13-10-----------
 |-10----------------------------------------------------1312-10---
 ------------------------------------------------------------------
 ------------------------------------------------------------------
 ------------------------------------------------------------------
 ------------------------------------------------------------------
 
 |-19^19^19^^17-15h17-15h17-17p15------
 --------------------------------------
 --------------------14----------------
 --------------------------------------
 --------------------------------------
 --------------------------------------
 
 

Видео