Black Sabbath - Keep It Warm (tab), аккорды

Прокрутка
Тональность
Шрифт
100
 
 -----------------------------------------------
 -----------------------------------------------
 -----------------------------------------------
 |--4/5---------------5-7-----4/5---7------------5-7--------
 |--2/3-----3p2p0-------------2/3---5--3p2p0----------------
 -----5-5------------------------5-5------------
 
 |---------0-------------0--------------3--------------------
 |-------3---3---------1---1------------0--------------------
 --2-----0-------0-------------------------------
 |--0--------------------------------0-------------------2---
 -----3----------------2---------3--0-3--0-3-----
 -------------------3----------------------------
 
 -----------------------------------
 -----------------------------------
 -----------------------------------
 |--5---4---2------2---|--4/5-------------5-7---------------
 |--3---2---0------0---|--2/3---3p2p0-----------------------
 ---3^--------5-5-------------------