Black Sabbath - Paranoid, аккорды

Прокрутка
Тональность
Шрифт
100
e|------------------------------------------------
B|------------------------------------------------
G|------------------------------------------------
D|-------------------12h14-------12---------------
A|-12h14--12h14--12h14---12h14--------12h14----14-
E|-12-----12-----12-------------------------------
 
----------------------------------------------------------12--
-------------palm mute------------------------------------12--
----------------------------------------------------------12--
-----------------------------------------------12-------------
-14141414141414141414141414141414-1212121212121212-10--12--14-
-12121212121212121212121212121212-1010101010101010-----10--12-
 
------------------------------------------------------
------------------------------------------------------
------------------------------------------------------
------------------------------------------------------
-14---------10-----12-----14141414141414141414--------
-12----------8-----10-----12121212121212121212and so on...
 
-------------------------------------------------------------
-------------------------------------------------------------
-can you help me?------occupy my brain...--------------------
-------------------------------------------------------------
-14-------------------12------------------14--------------12-
-12-------------------10------------------12--------------10-
 
Solo:
------------------------------------------------
------------------------------------------------
------------------------------------------------
-14^p12-14~~--14-12-14p12-----------------------
---------------1412-10h12-10h12-------10--------
---------------------------------10h12----12-12-
 
---------------------------------------------------------
---------------------------------------------------------
----------------12-14-14^^^14-12h14-14^^^12-14--12-------
--12h14-14--/14------------------------------------14-14-
-10h12-12/14---------------------------------------------
---------------------------------------------------------
 
------12-------------------15^-15^-15^^15--12-15p12----
----12--15-15^--15^--15-12--------------------------15-
-/14---------------------------------------------------
-12h14-14-14-------------------------------------------
-------------------------------------------------------
-------------------------------------------------------
 
-15p12----------------12----------------------------------
-------15-15p12----12----15p12----------------------------
-----14^------------14-14p12----12-14^^p12---14^-12h14p12-
-----------------------------14---------------------------
----------------------------------------------------------
----------------------------------------------------------
 
--------------------------------------------------------------------------
--------------------------------------------------------------------------
---12---------------------------------------------------12----------------
-14---14-14p12------12------------------------12--12h14----14-12-14-12-14-
----14--------12-10-12p10----12/14----------------------------------------
--------------------------12----------------------------------------------

At the end:
-----------------------------------------------------------
-----------------------------------------------------------
-----------------------------------------------------------
-----------------------------------------------------------
-14141414141414141414141414141414-1212121212121212-12----2-
-12121212121212121212121212121212-1010101010101010-10-3^-0-
 
 

Видео