Black Sabbath - NIB, аккорды

Прокрутка
Тональность
Шрифт
100
Intro:
|------------------------------||--------------||---12-12-
|------------------------------||-10^----------||---12-12-
|------------------------------||-----8~~~~----||---12-12-
|------------------------------||-----797979---||---------
|-14-14-12-14-17-16-14-14-12-14||--/7----------||---------
|-12-12-10-12-15-14-12-12-10-12||--------------||---------

|----------------------------------
|--------------------------12--12--
|--------------------------14^-14^-
|----------------------------------
|-------10-12-12p10----------------
|-10h12-------------12-12----------
Your Love for me has just got to be real.
E5     D5 C5 B5
And so on...

Solo #1:
|---------------------------------------------------------------
|---------------------------------------------------------------
|------------------------4-4--4/7-7--7h9-9---9^-9^--9^^^-797--7-
|--5-454---5-454---4h5-7----------------------------------------
|--------7-------7----------------------------------------------
|---------------------------------------------------------------

|-----------------------------------------------
|------------8-10p8--8-10-10^p8-10---10^p8-10-8-
|-9-9-9-8/9--------9---------------9------------
|-----------------------------------------------
|-----------------------------------------------
|-----------------------------------------------

|----------------------------------------
|--10^p8-10-8-10^-10^----1-101810-8/(15)-
|----------------------------------------
|----------------------------------------
|----------------------------------------
|----------------------------------------

|----------------------------------------------------------12-12----------
|-------------------------------------------------------12------15^-15-12-
|---------------4-4--4/7--7/9-9--9/12-12--12h14-14^-----------------------
|-5-454---4h5h7-----------------------------------------------------------
|-------7-----------------------------------------------------------------
|-------------------------------------------------------------------------

|-15p12--15p12--15p12--15p12-15^---15-121512----12-----------12---
|------12-----12-----12----------------------15----15p12---12--15-
|-------------------------------------------------------14^-------
|-----------------------------------------------------------------
|-----------------------------------------------------------------
|-----------------------------------------------------------------

|------12--------------------------------------------
|-15^----1512--12-15---------------------------------
|------------15-----14^-14^---14-121412----12-14^p12-
|---------------------------------------14-----------
|----------------------------------------------------
|----------------------------------------------------

Solo #2:
|-----------------------------------------------------------------
|-----------------------------------------------------------------
|------------------------4-4--4/7-7--7h9-9---9^-9^-9^^^----797--7-
|--5-454---5-454---4h5-7------------------------------------------
|--------7-------7------------------------------------------------
|-----------------------------------------------------------------

|-----------------------------10^------------------------------
|-/8-8-8-/8-8-8-/8-8-8-/8-8-8--------10^--8--10p8---8-10-10^p8-
|-/9-9-9-/9-9-9-/9-9-9-/9-9-9---------------------9------------
|--------------------------------------------------------------
|--------------------------------------------------------------
|--------------------------------------------------------------

|------------------------------------------12---------15^-15-15p12----
|-10---8-10-10^^^^^^^p8--10p8h10-8-------12---15^^^-12------------15^-
|----9--------------------------------14^-----------------------------
|---------------------------------------------------------------------
|---------------------------------------------------------------------
|---------------------------------------------------------------------

|---12---------12-------12-------12---------------------------------
|-15--15-12--12--15-15^---15-12----15--15^---121412---12------------
|----------14------------------14------------------14^--14-12-14p12-
|-------------------------------------------------------------------
|-------------------------------------------------------------------
|-------------------------------------------------------------------

|-------------12--------------------15p12--15p12------------------
|----------12--------------------12------12-----12---and so on...-
|---12-14^-------14^--14^--14^^^----------------------------------
|-14--------------------------------------------------------------
|-----------------------------------------------------------------
|-----------------------------------------------------------------

|-15^--15--121512-----------------------------
|-----------------15-15p12----12-15^p12----12-
|--------------------------14-----------14----
|---------------------------------------------
|---------------------------------------------
|---------------------------------------------

|------------------------------------------------------
|------------------------------------------------------
|--9------------12-14-^14p12-14p12-12-129-7h9--7-------
|--9------12-14-----------------------------------9----
|--7------------------------------------------------76-
|------------------------------------------------------
 
 

Видео