Blackmore's night - Under A Violet Moon, аккорды

Прокрутка
Тональность
Шрифт
100
[E-----------------------------------------------
B----------------------------1-----3-4--3-1-----
G-------------------------0-----0------------0--
D-----------------------------------------------
A-----------------1----3------------------------
E--------------3--------------------------------

--------------1---1-----------------------3--4--3--1--
--------1-------4---4-3----------1--4--1--------------
-----0-----0-------------3----------------------------
------------------------------------------------------
--3---------------------------3-----------------------
------------------------------------------------------

----1-------------------------------------------------
--4---4-3-1-----1------------------1-----3-4--3-1-----
-------------3------------------0-----0------------0--
------------------------------------------------------
------------------------1----3------------------------
---------------------3--------------------------------

--------------3--4--3-------------3--8--10--11--10--8--
-----1--4--1-----------4-------4-----------------------
----------------------------5--------------------------
-------------------------------------------------------
--3----------------------------------------------------
-------------------------------------------------------

----------------------------------------------------
--8------------------------------1-----3-4--3-1-----
-----8--7--8--5---------------0-----0------------0--
----------------------------------------------------
----------------------1----3------------------------
-------------------3--------------------------------

--------------1--------------------------------------
-----------------3----------------1-----3-4--3-1-----
-----------3--------3----------0-----0------------0--
-----0--3--------------3-----------------------------
--1-------------------------3------------------------
-----------------------------------------------------

--------------1--------------------------------------
-----------------3----------------1-----3-4--3-1-----
-----------3--------3----------0-----0------------0--
-----0--3--------------3-----------------------------
--1-------------------------3------------------------
-----------------------------------------------------

----------------------------------------------------
-------------------------------------1--------------
-----------3-----------3----------1--------------3--
-----0--3--------0--3----------1-----------0--3-----
--1-------------------------------------1-----------
--------------3-------------4-----------------------

-----------------------------------------1---1---------
--------1-----3-4--3-1-------------1-------4---4-3-----
-----0-----0------------0-------0-----0-------------3--
-------------------------------------------------------
--3--------------------------3-------------------------
-------------------------------------------------------

----------------------------------------------------
--------1-----3-4--3-1-------------1-----3----------
-----0-----0------------0-------0-----0-------------
----------------------------------------------------
--3--------------------------3-------------------1--
----------------------------------------------3-----

-----------------------------------------1-----------
--------1-----3-4--3-1----------------------3--------
-----0-----0------------0-------------3--------3-----
--------------------------------0--3--------------3--
--3--------------------------1-----------------------
-----------------------------------------------------

-----------------------------------------1-----------
--------1-----3-4--3-1----------------------3--------
-----0-----0------------0-------------3--------3-----
--------------------------------0--3--------------3--
--3--------------------------1-----------------------
-----------------------------------------------------

-----------------------------------------------------
--------1-----3-4--3-1-------------------------------
-----0-----0------------0-------------3-----------3--
--------------------------------0--3--------0--3-----
--3--------------------------1-----------------------
-----------------------------------------3-----------

-----------------------------------------------------
-----------1----------------------1-----3-4--3-1-----
--------1--------------3-------0-----0------------0--
-----1-----------0--3--------------------------------
--------------1-------------3------------------------
--4--------------------------------------------------

--------------1---1------------------------------------
--------1-------4---4-3-------------1-----3-4--3-1-----
-----0-----0-------------3-------0-----0------------0--
-------------------------------------------------------
--3---------------------------3------------------------
-------------------------------------------------------

-----------------------------------------------------
--------1-----3--4-3----1----------1-----4-----------
-----0-----0---------0----------0-----0-----5--0--5--
-----------------------------------------------------
--3--------------------------3-----------------------
-----------------------------------------------------

----------------------------------------------------
-----------1-----------3----------------3-----------
--------1-----------3-------------3--------3-----3--
-----3-----------3-------------3-----3--------3-----
--------------1-------------1-----------------------
--1-------------------------------------------------

----------------------------------------------------
--------1-----4----------------------4-----------4--
-----0-----0-----5--0--5----------5--------0--3-----
-------------------------------6--------------------
--3-------------------------------------------------
----------------------------4-----------3-----------

----------------------------------------------------
-----------1--------1--4----------1--4--------0--3--
--------1--------0-------------0-----------0--------
-----3----------------------------------------------
--------------3-------------3-----------------------
--1-------------------------------------3-----------

-----------------------------------------1---1---------
--------1-----3-4--3-1-------------1-------4---4-3-----
-----0-----0------------0-------0-----0-------------3--
-------------------------------------------------------
--3--------------------------3-------------------------
-------------------------------------------------------

----------------1----------------------------------------------------------
-----1--4--1--4----4-1----------------------------------1-----3-4--3-1-----
------------------------0----------------------------0-----0------------0--
---------------------------------------------------------------------------
--3--------------------------3---------------1----3------------------------
------------------------------------------3--------------------------------

--------------1--------------------------------------
-----------------3----------------1-----3-4--3-1-----
-----------3--------3----------0-----0------------0--
-----0--3--------------3-----------------------------
--1-------------------------3------------------------
-----------------------------------------------------

--------------1--------------------------------------
-----------------3----------------1-----3-4--3-1-----
-----------3--------3----------0-----0------------0--
-----0--3--------------3-----------------------------
--1-------------------------3------------------------
-----------------------------------------------------

----------------------------------------------------
-------------------------------------1--------------
-----------3-----------3----------1--------------3--
-----0--3--------0--3----------1-----------0--3-----
--1-------------------------------------1-----------
--------------3-------------4-----------------------

-----------------------------------------1---1---------
--------1-----3-4--3-1-------------1-------4---4-3-----
-----0-----0------------0-------0-----0-------------3--
-------------------------------------------------------
--3--------------------------3-------------------------
-------------------------------------------------------

-----------------------------------------1-----------
--------1-----3-4--3-1----------------------3--------
-----0-----0------------0-------------3--------3-----
--------------------------------0--3--------------3--
--3--------------------------1-----------------------
-----------------------------------------------------

-----------------------------------------1-----------
--------1-----3-4--3-1----------------------3--------
-----0-----0------------0-------------3--------3-----
--------------------------------0--3--------------3--
--3--------------------------1-----------------------
-----------------------------------------------------

-----------------------------------------------------
--------1-----3-4--3-1-------------------------------
-----0-----0------------0-------------3-----------3--
--------------------------------0--3--------0--3-----
--3--------------------------1-----------------------
-----------------------------------------3-----------

-----------------------------------------------------
-----------1----------------------1-----3-4--3-1-----
--------1--------------3-------0-----0------------0--
-----1-----------0--3--------------------------------
--------------1-------------3------------------------
--4--------------------------------------------------

--------------1---1------------------------------------
--------1-------4---4-3-------------1-----3-4--3-1-----
-----0-----0-------------3-------0-----0------------0--
-------------------------------------------------------
--3---------------------------3------------------------
-------------------------------------------------------

----------------------------------------------------------------------------
-------1-----3------------------1-----4----------------------1-----------3--
----0-----0------------------0-----0-----5--0--5----------1-----------3-----
-------------------------------------------------------3-----------3--------
---------------------1----3-------------------------------------1-----------
------------------3---------------------------------1-----------------------

----------------------------------------------------
--------------3-------------------1-----4-----------
--------3--------3-----3-------0-----0-----5--0--5--
-----3-----3--------3-------------------------------
--1-------------------------3-----------------------
----------------------------------------------------

----------------------------------------------------
-----------4-----------4-------------1--------1--4--
--------5--------0--3-------------1--------0--------
-----6-------------------------3--------------------
----------------------------------------3-----------
--4-----------3-------------1-----------------------

-----------------------3----------------------------
--------1--4--------0-------------1-----4-----------
-----0-----------0-------------0-----0-----5--0--5--
----------------------------------------------------
--3-------------------------3-----------------------
--------------3-------------------------------------

----------------------------------------------------
--------1-----4----------------------1-----------3--
-----0-----0-----5--0--5----------1-----------3-----
-------------------------------3-----------3--------
--3-------------------------------------1-----------
----------------------------1-----------------------

----------------------------------------------------
--------------3-------------------1-----4-----------
--------3--------3-----3-------0-----0-----5--0--5--
-----3-----3--------3-------------------------------
--1-------------------------3-----------------------
----------------------------------------------------

----------------------------------------------------
-----------4-----------4-------------1--------1--4--
--------5--------0--3-------------1--------0--------
-----6-------------------------3--------------------
----------------------------------------3-----------
--4-----------3-------------1-----------------------

-----------------------3----------------------------
--------1--4--------0-------------1-----4-----------
-----0-----------0-------------0-----0-----5--0--5--
----------------------------------------------------
--3-------------------------3-----------------------
--------------3-------------------------------------

--3--3--3--3--3--3--3--3----------------------------
--4--4--4--4--4--4--4--4----3--3--3--3--3--3--3--3--
--3--3--3--3--3--3--3--3----3--3--3--3--3--3--3--3--
--5--5--5--5--5--5--5--5----3--3--3--3--3--3--3--3--
--6--6--6--6--6--6--6--6----5--5--5--5--5--5--5--5--
----------------------------6--6--6--6--6--6--6--6--

--3--3--3--3--3--3--3--3----------------3--3--3--3--
--4--4--4--4--4--4--4--4----3--3--3--3--3--3--3--3--
--5--5--5--5--5--5--5--5----3--3--3--3--4--4--4--4--
--5--5--5--5--5--5--5--5----3--3--3--3--5--5--5--5--
--3--3--3--3--3--3--3--3----5--5--5--5--5--5--5--5--
----------------------------6--6--6--6--3--3--3--3--

--3--3--3--3--3--3--3--3----------------------------
--4--4--4--4--4--4--4--4----3--3--3--3--3--3--3--3--
--3--3--3--3--3--3--3--3----3--3--3--3--3--3--3--3--
--5--5--5--5--5--5--5--5----3--3--3--3--3--3--3--3--
--6--6--6--6--6--6--6--6----5--5--5--5--5--5--5--5--
----------------------------6--6--6--6--6--6--6--6--

--3--3--3--3----------------3--3--3--3--3--3--3--3--
--4--4--4--4--3--3--3--3----4--4--4--4--4--4--4--4--
--5--5--5--5--3--3--3--3----5--5--5--5--5--5--5--5--
--5--5--5--5--3--3--3--3----5--5--5--5--5--5--5--5--
--3--3--3--3--5--5--5--5----3--3--3--3--3--3--3--3--
--------------6--6--6--6----------------------------

--1--1--1--1--1--1--1--1----3--3--3--3--3--3--3--3--
--1--1--1--1--1--1--1--1----4--4--4--4--4--4--4--4--
--1--1--1--1--1--1--1--1----3--3--3--3--3--3--3--3--
--3--3--3--3--3--3--3--3----5--5--5--5--5--5--5--5--
--3--3--3--3--3--3--3--3----6--6--6--6--6--6--6--6--
--1--1--1--1--1--1--1--1----------------------------

--3--3--3--3--3--3--3--3----3--3--3--3--3--3--3--3--
--4--4--4--4--3--3--3--3----4--4--4--4--4--4--4--4--
--5--5--5--5--4--4--4--4----5--5--5--5--5--5--5--5--
--5--5--5--5--5--5--5--5----5--5--5--5--5--5--5--5--
--3--3--3--3--5--5--5--5----3--3--3--3--3--3--3--3--
--------------3--3--3--3----------------------------

--1--1--1--1--1--1--1--1----3--3--3--3--3--3--3--3--
--1--1--1--1--1--1--1--1----4--4--4--4--4--4--4--4--
--1--1--1--1--1--1--1--1----3--3--3--3--3--3--3--3--
--3--3--3--3--3--3--3--3----5--5--5--5--5--5--5--5--
--3--3--3--3--3--3--3--3----6--6--6--6--6--6--6--6--
--1--1--1--1--1--1--1--1----------------------------

--3--3--3--3--3--3--3--3----3--3--3--3--3--3--3--3--
--4--4--4--4--3--3--3--3----4--4--4--4--4--4--4--4--
--5--5--5--5--4--4--4--4----5--5--5--5--5--5--5--5--
--5--5--5--5--5--5--5--5----5--5--5--5--5--5--5--5--
--3--3--3--3--5--5--5--5----3--3--3--3--3--3--3--3--
--------------3--3--3--3----------------------------

-----------------------------------------3--4--3--1--
--------1-----3-4--3-1----------1--4--1--------------
-----0-----0------------0----------------------------
-----------------------------------------------------
--3--------------------------3-----------------------
-----------------------------------------------------

---------------------------------------------------
----4--3-4-3--1-----1------------------------------
-----------------3-----3----1--0--0-----0----------
-------------------------------------3-------------
------------------------------------------------1--
---------------------------------------------3-----

-----------------------------------------1-----------
--------1-----3-4--3-1----------------------3--------
-----0-----0------------0-------------3--------3-----
--------------------------------0--3--------------3--
--3--------------------------1-----------------------
-----------------------------------------------------

-----------------------------------------1-----------
--------1-----3-4--3-1----------------------3--------
-----0-----0------------0-------------3--------3-----
--------------------------------0--3--------------3--
--3--------------------------1-----------------------
-----------------------------------------------------

-----------------------------------------------------
--------1-----3-4--3-1-------------------------------
-----0-----0------------0-------------3-----------3--
--------------------------------0--3--------0--3-----
--3--------------------------1-----------------------
-----------------------------------------3-----------

-----------------------------------------------------
-----------1----------------------1-----3-4--3-1-----
--------1--------------3-------0-----0------------0--
-----1-----------0--3--------------------------------
--------------1-------------3------------------------
--4--------------------------------------------------

--------------1---1------------------------------------
--------1-------4---4-3-------------1-----3-4--3-1-----
-----0-----0-------------3-------0-----0------------0--
-------------------------------------------------------
--3---------------------------3------------------------
-------------------------------------------------------

--------------1--------------------------------------
-----------------3----------------1-----3-4--3-1-----
-----------3--------3----------0-----0------------0--
-----0--3--------------3-----------------------------
--1-------------------------3------------------------
-----------------------------------------------------

--------------1--------------------------------------
-----------------3----------------1-----3-4--3-1-----
-----------3--------3----------0-----0------------0--
-----0--3--------------3-----------------------------
--1-------------------------3------------------------
-----------------------------------------------------

----------------------------------------------------
-------------------------------------1--------------
-----------3-----------3----------1--------------3--
-----0--3--------0--3----------1-----------0--3-----
--1-------------------------------------1-----------
--------------3-------------4-----------------------

-----------------------------------------1---1---------
--------1-----3-4--3-1-------------1-------4---4-3-----
-----0-----0------------0-------0-----0-------------3--
-------------------------------------------------------
--3--------------------------3-------------------------
-------------------------------------------------------

-----------------------------------------------------------------------------
--------1-----3-4--3-1------------1-----3------------------1-----4-----------
-----0-----0------------0------0-----0------------------0-----0-----5--0--5--
-----------------------------------------------------------------------------
--3---------------------------------------------1----3-----------------------
---------------------------------------------3-------------------------------

----------------------------------------------------
-----------1-----------3----------------3-----------
--------1-----------3-------------3--------3-----3--
-----3-----------3-------------3-----3--------3-----
--------------1-------------1-----------------------
--1-------------------------------------------------

----------------------------------------------------
--------1-----4----------------------4-----------4--
-----0-----0-----5--0--5----------5--------0--3-----
-------------------------------6--------------------
--3-------------------------------------------------
----------------------------4-----------3-----------

-------------------------------------------------3--
-----------1--------1--4----------1--4--------0-----
--------1--------0-------------0-----------0--------
-----3----------------------------------------------
--------------3-------------3-----------------------
--1-------------------------------------3-----------

----------------------------------------------------
--------1-----4-------------------1-----4-----------
-----0-----0-----5--0--5-------0-----0-----5--0--5--
----------------------------------------------------
--3-------------------------3-----------------------
----------------------------------------------------

----------------------------------------------------
-----------1-----------3----------------3-----------
--------1-----------3-------------3--------3-----3--
-----3-----------3-------------3-----3--------3-----
--------------1-------------1-----------------------
--1-------------------------------------------------

----------------------------------------------------
--------1-----4----------------------4-----------4--
-----0-----0-----5--0--5----------5--------0--3-----
-------------------------------6--------------------
--3-------------------------------------------------
----------------------------4-----------3-----------

-------------------------------------------------3--
-----------1--------1--4----------1--4--------0-----
--------1--------0-------------0-----------0--------
-----3----------------------------------------------
--------------3-------------3-----------------------
--1-------------------------------------3-----------

----------------------------------------------------
--------1-----4-------------------1-----4-----------
-----0-----0-----5--0--5-------0-----0-----5--0--5--
----------------------------------------------------
--3-------------------------3-----------------------
----------------------------------------------------

----------------------------------------------------
-----------1-----------3----------------3-----------
--------1-----------3-------------3--------3-----3--
-----3-----------3-------------3-----3--------3-----
--------------1-------------1-----------------------
--1-------------------------------------------------

----------------------------------------------------
--------1-----4----------------------4-----------4--
-----0-----0-----5--0--5----------5--------0--3-----
-------------------------------6--------------------
--3-------------------------------------------------
----------------------------4-----------3-----------

-------------------------------------------------3--
-----------1--------1--4----------1--4--------0-----
--------1--------0-------------0-----------0--------
-----3----------------------------------------------
--------------3-------------3-----------------------
--1-------------------------------------3-----------

----------------------------------------------------
--------1-----4-------------------1-----4-----------
-----0-----0-----5--0--5-------0-----0-----5--0--5--
----------------------------------------------------
--3-------------------------3-----------------------
----------------------------------------------------]
 
 

Видео