Blackmore's night - The Clock Ticks On, аккорды

Прокрутка
Тональность
Шрифт
100
[------------------------------------------------------------0-----------
-----------0----------------------0--2----------------0--4-----4--2--0--
--------------3----------------1----------------------------------------
--------6-----1-------------1----------------------4--------2-----------
-----6------------------------------------------2-----------------------
--4----------------------4-----------2----------------------------------

--2--0-------------------4--2--0--4--2--0---------0--------0-----------
--------4--0--2----------------------------4---------4--2-----4--------
-----------------------------------------------------------------------
-------------------------2-----------1---------------------------------
--2-----------------------------------------------4-----------2--------
--------------2--------------------------------------------------------

--4--2--0--------------------------------------------------2--2-6-9--------
-----------4--2--0---------------------0-2---------------2-----------------
--------------------3--1-------3-----3-----------------3-------------------
--2-------------------------4-----4----------------------------------------
---------------------------------------------------------------------------
----------------------------------------------------2----------------------

--9--7--6--4--6-----------------------------------------------------------
-----------------7-------------7---------------------------------------2--
--------------------6-------6-----6----------------8----8--6--4--3--4-----
-----------------------8-------------8------------------------------------
----------------------------------------9---------------------------------
---------------------------------------------------7----------------------

-----0--2--0---0-----------------------------------------0--2-------------
--4----------4---4----2------4----4--2--0-----0--2----4----------2--------
-------------------------------------------3------------------------------
--------------------------------------------------------------------------
--2--------------------------2------------------------2-------------------
----------------------2------------------------------------------2--------

------------------------------0--2--0---0------------------------------------
--4----4--2--0-----0--2----4----------4---4----2------4----4--2--0-----0--2--
----------------3---------------------------------------------------3--------
-----------------------------------------------------------------------------
--2------------------------2--------------------------2----------------------
-----------------------------------------------2-----------------------------

-----0--2------------------2-------------2-----------2-----------
--4------------2--------2-----2-----2-------2-----2-----2-----2--
---------------------3-----------3-------------3-----------3-----
------------------4----------------------------------------------
--2--------------------------------------------------------------
-----------------------------------------------------------------

--------------------------
--------0--4--------0--4--
--------------------------
-----4-----------4--------
--2-----------2-----------
--------------------------

--------------2-----2--------------------------------------------------------
--------0--4-----0--2---------------4--------0--4----------0--4-----------2--
--------------------3------------4--------1----------------------------3-----
-----4--------------4---------4-------------------------4-----------4--------
--2-----------------4------2-------------------------2-----------------------
--------------------2------------------4-------------------------2-----------

----------------------------------------2-----2------------------------------
--------0--4--------0--4----------0--4-----0--2---------------4--------0--4--
----------------------------------------------3------------4--------1--------
-----4-----------4-------------4--------------4---------4--------------------
--2-----------2-------------2-----------------4------2-----------------------
----------------------------------------------2------------------4-----------

-----0--2------------------2-------------------------2--------
--4---------------------2-----2-------------------2-----------
--4------------------3-----------3-------------3--------------
--4---------------4-----------------4-------4-----------------
--2-----------------------------------------------------------
---------------2-------------------------2--------------------

--4--2--0-----------0-------2--0---0-------------------
-----------4--2--4-----4---------4---4--2--0--2--4--0--
-------------------------------------------------------
--2----------------------------------------------------
----------------------------2--------------------------
--------------2----------------------------4-----------

--0---0------------------------0-----------7---------------------7----------
----4---4--2--0-----0--2----------4--2--0---------------------7-----7-------
-----------------3--------3--------------------------------8-----------8----
--2-------------------------------------------------------------------------
-------------------------------2--------------------------------------------
-----------------2------------------------------------7---------------------

--7-----------9--6-----6---------------7----------------0----------2----
-----9-----9--------7------------0--4----------------0----------2-------
--------9---------------------------------------------------------------
------------------------------------------------------------------------
--7-----------------------------------------------7---------------------
--------------2-------------7--------------------------------2----------

------------------------0-----0-----------------------------------------
--------0-------------------4---4----2--0-----------------0-----0--2----
-------------2-----------------------------3------1----1-----3----------
-----4------------------------------------------------------------------
--2---------------------------------------------------------------------
------------------------------------------------------------------------

--------------2-------------------------2---------------------2--7----------
--------0--2-----2--0-------------0--2-----2--0------------4--------7-------
-----------------------------------------------------------------------8----
-----4-----------------4-------4-----------------4--------------------------
--2-------------------------2-------------------------2---------------------
----------------------------------------------------------------------------

--7-----------9--6-----6---------------7----------------0----------2----
-----9-----9--------7------------0--4----------------0----------2-------
--------9---------------------------------------------------------------
------------------------------------------------------------------------
--7-----------------------------------------------7---------------------
--------------2-------------7--------------------------------2----------

------------------------0-----0-----------------------------------------
--------0-------------------4---4----2--0-----------------0-----0--2----
-------------2-----------------------------3------1----1-----3----------
-----4------------------------------------------------------------------
--2---------------------------------------------------------------------
------------------------------------------------------------------------

--------------2-------------------------2-----------
--------0--2-----2--0-------------0--2-----2--0-----
----------------------------------------------------
-----4-----------------4-------4-----------------4--
--2-------------------------2-----------------------
----------------------------------------------------

----------------------------------------2-----2------------------------------
--------0--4--------0--4----------0--4-----0--2---------------4--------0--4--
----------------------------------------------3------------4--------1--------
-----4-----------4-------------4--------------4---------4--------------------
--2-----------2-------------2-----------------4------2-----------------------
----------------------------------------------2------------------4-----------

------------------------------------------------------------------2-----2----
--------0--4-----------2----------0--4--------0--4----------0--4-----0--2----
--------------------3---------------------------------------------------3----
-----4-----------4-------------4-----------4-------------4--------------4----
--2-------------------------2-----------2-------------2-----------------4----
--------------2---------------------------------------------------------2----

-------------------------------0--2------------------2-----------
-----------4--------0--4----4---------------------2-----2--------
--------4--------1----------4------------------3-----------3-----
-----4----------------------4---------------4-----------------4--
--2-------------------------2------------------------------------
--------------4--------------------------2-----------------------

--------------2------------------------------------------------------
-----------2----------------------0----------------------0--2--------
--------3----------------------1-----3----------------1--------------
-----4----------------------1--------1-------------1-----------------
---------------------------------------------------------------------
--2----------------------4----------------------4-----------2--------

--------------0-------------2--0-------------------4--2--0--4--2--0-------
--------0--4-----4--2--0----------4--0--2----------------------------4----
--------------------------------------------------------------------------
-----4--------2------------------------------------2-----------1----------
--2-------------------------2---------------------------------------------
----------------------------------------2---------------------------------

--0--------0-------------4--2--0-----------------------------------------
-----4--2-----4-------------------4--2--0---------------------0-2--------
-------------------------------------------3--1-------3-----3------------
-------------------------2-------------------------4-----4---------------
--4-----------2----------------------------------------------------------
-------------------------------------------------------------------------

---------2--2-6-9----------9--7--6--4--6----------------------------------
-------2----------------------------------7-------------7-----------------
-----3---------------------------------------6-------6-----6--------------
------------------------------------------------8-------------8-----------
-----------------------------------------------------------------9--------
--2-----------------------------------------------------------------------

------------------------------------------------------------------
------------------------------------------------------------------
------------------------------------------------------------------
--------------------------------------------------------1---------
------------6----4--6----7----6----4----------2------4-------2----
--7------9--------------------------------------------------------

-------------------------------------------------------------------
-------------------------------------------------------------------
-------------------------------------------------------------------
---------------------------------1-------1----2----1---------------
-------2----4----------2------4------4------------------4--2--1----
--4----------------------------------------------------------------

---------0-0-2------2-2---2----------------------------------
---------0-0-2------2-2---4----------------------------------
-------------3------3-3---4----------------------------------
---------2-2-4------4-4---4----------------------------------
-------------4------4-4---2----------------------------------
--4----------2------2-2--------------------------------------

------------------------------0--2--0---0------------------------------------
--4----4--2--0-----0--2----4----------4---4----2------4----4--2--0-----0--2--
----------------3---------------------------------------------------3--------
-----------------------------------------------------------------------------
--2------------------------2--------------------------2----------------------
-----------------------------------------------2-----------------------------

-----0--2-------------------------------------------0--2--0---0-----------
--4----------2----------4----4--2--0-----0--2----4----------4---4----2----
--------------------------------------3-----------------------------------
--------------------------------------------------------------------------
--2---------------------2------------------------2------------------------
-------------2-------------------------------------------------------2----

------------------------------0--2--------------------------------------
--4----4--2--0-----0--2----4----------2----------4----4--2--0-----0--2--
----------------3----------------------------------------------3--------
------------------------------------------------------------------------
--2------------------------2---------------------2----------------------
--------------------------------------2---------------------------------

-----0--2--0---0-----------------------------------------0--2-------------
--4----------4---4----2------4----4--2--0-----0--2----4----------2--------
-------------------------------------------3------------------------------
--------------------------------------------------------------------------
--2--------------------------2------------------------2-------------------
----------------------2------------------------------------------2--------

------------------------------0--2--0---0------------------------------------
--4----4--2--0-----0--2----4----------4---4----2------4----4--2--0-----0--2--
----------------3---------------------------------------------------3--------
-----------------------------------------------------------------------------
--2------------------------2--------------------------2----------------------
-----------------------------------------------2-----------------------------

-----0--2-------------------------------------------0--2--0---0-----------
--4----------2----------4----4--2--0-----0--2----4----------4---4----2----
--------------------------------------3-----------------------------------
--------------------------------------------------------------------------
--2---------------------2------------------------2------------------------
-------------2-------------------------------------------------------2----

------------------------------0--2--------------------------------------
--4----4--2--0-----0--2----4----------2----------4----4--2--0-----0--2--
----------------3----------------------------------------------3--------
------------------------------------------------------------------------
--2------------------------2---------------------2----------------------
--------------------------------------2---------------------------------

-----0--2--0---0-----------------------------------------0--2-------------
--4----------4---4----2------4----4--2--0-----0--2----4----------2--------
-------------------------------------------3------------------------------
--------------------------------------------------------------------------
--2--------------------------2------------------------2-------------------
----------------------2------------------------------------------2--------

------------------------------0--2--0---0------------------------------------
--4----4--2--0-----0--2----4----------4---4----2------4----4--2--0-----0--2--
----------------3---------------------------------------------------3--------
-----------------------------------------------------------------------------
--2------------------------2--------------------------2----------------------
-----------------------------------------------2-----------------------------

-----0--2-------------------------------------------0--2--0---0-----------
--4----------2----------4----4--2--0-----0--2----4----------4---4---------
--------------------------------------3------------------------------6----
------------------------1---------------------------2--4--2---------------
--2--------------------------6--4--2--1--2--4----6--------------6----4----
-------------2------------------------------------------------------------

------------------------------0--2--------------------------------------
--4----4-----0-----0--2----4----------2----------4----4-----0-----0--2--
----------6-----3----------------------------------------6-----3--------
------------------------------2--4--------------------------------------
--6----6--4--2--1--2--4----6----------4----------6----6--4--2--1--2--4--
------------------------------------------------------------------------

-----0--2--0---0-----------------------------------------0--2-------------
--4----------4---4-----------4----4-----0-----0--2----4----------2--------
----------------------6--------------6-----3------------------------------
-----2--4--2---------------------------------------------2--4-------------
--6--------------6----4------6----6--4--2--1--2--4----6----------4--------
--------------------------------------------------------------------------

------------------------------0--2--0---0------------------------------------
--4----4-----0-----0--2----4----------4---4-----------4----4-----0-----0--2--
----------6-----3------------------------------6--------------6-----3--------
------------------------------2--4--2----------------------------------------
--6----6--4--2--1--2--4----6--------------6----4------6----6--4--2--1--2--4--
-----------------------------------------------------------------------------

-----0--2-------------------------------------------0--2--0---0-----------
--4----------2----------4----4-----0-----0--2----4----------4---4---------
--------------------------------6-----3------------------------------6----
-----2--4-------------------------------------------2--4--2---------------
--6----------4----------6----6--4--2--1--2--4----6--------------6----4----
--------------------------------------------------------------------------

------------------------------0--2---------------2----------------
--4----4-----0-----0--2----4----------2----------4----------------
----------6-----3--------------------------------4----------------
------------------------------2--4---------------4----------------
--6----6--4--2--1--2--4----6----------4----------2----------------
------------------------------------------------------------------]
 
 

Видео