Blake Shelton - Dont Make Me, аккорды

Прокрутка
Тональность
Шрифт
100
Tabbed by: Travis Sand
Tuning: Standard

e|----------8-------8--------------------------------------------------------|
B|--6h8/10-----8p6-----8h106----------6-------8-----------------------------|
G|------------------------------3h5/7-----7/9-----9/10-----------------------|
D|---------------------------------------------------------------------------|
A|---------------------------------------------------------------------------|
E|---------------------------------------------------------------------------|

e|----------8-------8--------------------------------------------------------|
B|--6h8/10-----8p6-----8h106----------6-------8-----------------------------|
G|------------------------------3h5/7-----7/9-----9/10-----------------------|
D|---------------------------------------------------------------------------|
A|---------------------------------------------------------------------------|
E|---------------------------------------------------------------------------|

Комментарий автора:

| / slide up
|  slide down
| h hammer-on
| p pull-off
| ~ vibrato
| + harmonic
| x Mute note
 
 

Видео