Blake Shelton - Ol' Red, аккорды

Прокрутка
Тональность
Шрифт
100
Tabbed by: Travis Sand
Tuning: Standard EADGBe

e|---------------------------------------------------------------------------|
B|---------------------------------------------------------------------------|
G|----------1-------------1----------1---------------------------------------|
D|--1h3--3-----3--1h3--3-----1h3--3-----3-------1--1h3--x--3-----------------|
A|-----------------------------------------1h3-------------------------------|
E|---------------------------------------------------------------------------|

e|---------------------------------------------------------------------------|
B|---------------------------------------------------------------------------|
G|---------------------------------------------------------------------------|
D|--1h3--x--3--1h3--x--3-----------------------------------------------------|
A|------------------------3--------------------------------------------------|
E|---------------------------3^--1-------------------------------------------|

Комментарий автора:

NOTES
1) In this tab, the "X" represents a "dead note" or a note which is plucked, but is 
so no sounds comes out
2) The "^" symbol is when that particular note is bent down or away from you, which 
bends it slightly up an octave but is bent down from you because there is no room to bend it up.

| / slide up
|  slide down
| h hammer-on
| p pull-off
| ~ vibrato
| + harmonic
| x Mute note
 
 

Видео