Blake Shelton - Some Beach, аккорды

Прокрутка
Тональность
Шрифт
100
Riff 1:
e|--------------------------|
B|о------------------------о|
G|--------------------------|
D|-----------------------2--|
A|о--------------2---2h4---о|
E|--0-0---0--2h4------------|

Riff 2:
e|--------------------------|
B|о------------------------о|
G|-----------------------2--|
D|---------------2---2h4----|
A|о-0-0---0--2h4-----------о|
E|--------------------------|
 
 

Видео