Blake Shelton - Who Are You When I'm Not Looking, аккорды

Прокрутка
Тональность
Шрифт
100
Capo on 2nd fret

INTRO:
        Em7              (D/F#)  G
e|---------|-----------0-------------------|-----------------------------|
B|---------|-------3---------3-------------|-------3---------------------|
G|---------|---------0---------0-----------|-----------2---0---0---------|
D|-2/42p0--|-0h2---------2-------2-2/42p0--|---------0-------0-------0h2-|
A|---------|-------------------------------|-0h2-----------------0h2-----|
E|---------|-0---0---------0-------0-------|-3---3-------3---------------|

 D
e|----------0---------2p0-------|-----0------------------|
B|------3-------3---3-----2/3---|---------3--------------|
G|----2-------2---------------2-|---2---2-----2----------|
D|-0------0-------0-------------|-0---------0----0-----0-|
A|------------------------------|------------------0h2---|
E|------------------------------|------------------------|

CHORUS/VERSE:
 D
e|-------0-------------2p0---------|-----------0-----0h2---2p0-----|
B|-----3---------3---------3-------|-------3-------3-----------3---|
G|---2-------2-------2-------2---2-|---2-----2---------------------|
D|-0-------0---0---0-----------0---|-0---0-------0-------0-------0-|
A|---------------------------------|-------------------------------|
E|---------------------------------|-------------------------------|
 My, oh my, you're so good looking

 G
e|---------------0---------------|---------------0-------------|
B|-------3-----------3-----------|-------3-----------3---------|
G|-----0-----0-----0-------------|-----0-----0-----0-----0-----|
D|---0---------0-------0-------0-|---0---------0-------------0-|
A|-------------------------0h2---|-----------------------------|
E|-3-------3-------------3-------|-3-------3-----------3---3---|
 Hold yourself together like a pair of bookends

 A
e|---------------0---------------|------------------0-----------|
B|------2----0----------2----0---|-0h2---2---0----------2---0h2-|
G|----2--------2------2--------2-|-----2--------2-----2---------|
D|-------------------------------|------------------------------|
A|-0------0--------0------0------|-0-------0------0-------0-----|
E|-------------------------------|------------------------------|
 But I've not tasted all your cooking

 G                     
e|---------------0---------------|-----------------0----|
B|-------3-----------3-----------|-0-----2----3----2----|
G|-----0-----0-----0-------------|-0-----2----4---------|
D|---0---------0-------0-------0-|----0----------0------|
A|-------------------------0h2---|----------------------|
E|-3-------3-------------3-------|-3-------3------------|
 Who are you when I'm not looking

     D
Do you pour a little something on the rocks?
    G
Slide down the hallway in your socks?
   A   
When you undress, do you leave a path?
   G
Then sink to your nose in a bubble bath?

D
My oh my, you're so good-looking
   G
Hold yourself together like a pair of bookends
   A
But I've not tasted all your cooking
G
Who are you when I'm not looking?

(Intro)

     Em7
I wanna know
D/F#   G
I wanna know
     D
I wanna know

  D 
Do you break things when you get mad?
    G
Eat a box of chocolates 'cause you're feelin' bad?
     A
Do you paint your toes 'cause you bite your nails?
G
Call up momma when all else fails?

D
Who are you when I'm not around?
      G
When the door is locked and the shades are down?
     A
Do you listen to your music quietly?
        G
And when it feels just right, are you thinkin' of me?

     Em7
I wanna know
D/F#   G
I wanna know
     D
I wanna know

ENDING:
e|-------0-------------2p0---------|-----------0-----0h2-----------|
B|-----3---------3---------3-------|-------3-------3-------3-------|
G|---2-------2-------2-------2---2-|---2-----2---------------------|
D|-0-------0---0---0-----------0---|-0---0-------0-------0-------0-|
A|---------------------------------|-------------------------0h2---|
E|---------------------------------|-------------------------------|
My oh my, you're so good-looking

e|-2----------|
B|-3----------|
G|-2----------|
D|-0----------|
A|------------|
E|------------|
But who are you when I'm not looking? 
 
 

Видео