Блатные песни - Мурка, аккорды

Прокрутка
Тональность
Шрифт
100
Вступление:
--------------------------------------------------------------
----------------------------------------------------------1-0-
----------------------------------2-2-1-2-4--2-1-2-4----------
-2-2-1-2-3-2---0----------------------------------------------
---------------------3-2-3-2-0--------------------------------
--------------------------------------------------------------

-----------------------------------------------------
-----------------------------------------------------
--2-1-4-2---2-0-------0------------------------------
-------------------3-2-----3--2-2-5-3-2-0------------
-----------------------------------------------3-2-0-
-----------------------------------------------------

Мурка:
E||--0--0-----0--1--0------|--5--5--4--5--7--5--4--5—|-------------
B||--1-----4---------------|--3--1--0--1--0----------|--5---------- 
G||--2---------------------|--0--------------2-------|--5---------- 
D||--2---------------------|--2----------------------|--7---------- 
A||--0---------------------|--2----------------------|--7---------- 
E||--0---------------------|-------------------------|-------------


--7----------------|--8--7--5--4--7--5------|--5--3-------3--1-------| 		             
-------------------|--5---------------------|--3-----6--5------------|
-------------------|--5---------------------|--3---------------------|
-------------------|--5---------------------|--0---------------------|
-------------------|--0---------------------|------------------------|
--------------------------------------------|------------------------|


--0--0--3--1--0-----------|---||
--1--------------3-1--0---|---||
--2-----------------------|-2-||
--2-----------------------|---||
--0-----------------------|---||
--------------------------|---||
 
 

Видео