Blink 182 - Alone, аккорды

Прокрутка
Тональность
Шрифт
100
E---------------------------
B---------------------------
G---------------------------
D----3-3-2-3-2---5-3-2------ 3 times
A-0-----------3-------------
E---------------------------
 

E---------------------------
B---------------------------
G---------------------------
D----3-3-2-3-2---5-5-3-2----
A-0-----------3-3-----------
E---------------------------


E---------------------------
B---------------------------
G---------------------------
D----3-3-2-3-2---5-3-2------ 3 times
A-0-----------3-------------
E---------------------------


E---------------------------
B---------------------------
G---------------------------
D----3-3-2-3-2---5-5-3-2-3-2
A-0-----------3-3-----------
E---------------------------
 
 

Видео