Blink 182 - A New Hope, аккорды

Прокрутка
Тональность
Шрифт
100
Intro:
e|-333332222----------222---------------|
B|------3333-1111-3333333---------------|
G|--------------------------------------|
D|--------------------------------------|
A|--------------------------------------|(2x)
E|--------------------------------------|

Background chords
G5 C5 D5
e|-----------------------------------------|
B|-----------------------------------------|
G|---------------5-5-5-5-5-5--7-7-7-7-7-7--|
D|--5-5-5-5-5-5--5-5-5-5-5-5--7-7-7-7-7-7--|
A|--5-5-5-5-5-5--3-3-3-3-3-3--5-5-5-5-5-5--|
E|--3-3-3-3-3-3----------------------------|

Verse:
G5 C5 D5
e|-----------------------------------------|
B|-----------------------------------------|
G|---------------5-5-5-5-5-5--7-7-7-7-7-7--|
D|--5-5-5-5-5-5--5-5-5-5-5-5--7-7-7-7-7-7--|(2x)
A|--5-5-5-5-5-5--3-3-3-3-3-3--5-5-5-5-5-5--|
E|--3-3-3-3-3-3----------------------------|

E5 C5 D5
e|-----------------------------------------|
B|-----------------------------------------|
G|---------------5-5-5-5-5-5--7-7-7-7-7-7--|
D|--2-2-2-2-2-2--5-5-5-5-5-5--7-7-7-7-7-7--|
A|--2-2-2-2-2-2--3-3-3-3-3-3--5-5-5-5-5-5--|(1x)
E|--0-0-0-0-0-0----------------------------|

e|-33333333-22222222----|
B|----------------------|
G|----------------------|
Repeat all that... The last bit before the chorus is:

e|-33333333------------------|
B|---------------------------|
G|-----------|

Chorus:
A5 C5 |-PM--| |-PM--|
e|-----------------------------------------------------|
B|-----------------------------------------------------|
G|--2-2-2-2-2-2--5-5-5-5-5-5---------------------------|
D|--2-2-2-2-2-2--5-5-5-5-5-5---------------------------|
A|--0-0-0-0-0-0--3-3-3-3-3-3---5-5-555--7--5-5-555-4---|(2x)
E|-----------------------------3-3-333--5--3-3-333-2---|

A5 C5 D5
e|-----------------------------------------|
B|-----------------------------------------|
G|--2-2-2-2-2-2--5-5-5-5-5-5--7-7-7-7-7-7--|
D|--2-2-2-2-2-2--5-5-5-5-5-5--7-7-7-7-7-7--|
A|--0-0-0-0-0-0--3-3-3-3-3-3--5-5-5-5-5-5--|
E|-----------------------------------------|

Then:
Back to intro
Verse 2 same as Verse 1
Chorus

Interlude:
e|------------------------------------|------------------------------------|
B|-----0h3------0h3------0h3------0---|-----1p0------1p0------1p0------0---|
G|-0-0------0-0------0-0------0-0-----|-0-0------0-0------0-0------0-0-----|
D|------------------------------------|------------------------------------|
A|------------------------------------|------------------------------------|
E|------------------------------------|------------------------------------|

e|------------------------------------|------------------------------------|
B|-----0h3------0h3------0h3------0---|-----1p0------1p0------0h1------0---|
G|-0-0------0-0------0-0------0-0-----|-0-0------0-0------0-0------0-0-----|
D|------------------------------------|------------------------------------|
A|------------------------------------|------------------------------------|(2x)
E|------------------------------------|------------------------------------|

Then:
e|-----------------------------------------|
B|-----------------------------------------|
G|------5/7-7-7--5-5/4/5/9-9--7-7----------|
D|-5-5--5/7-7-7--5-5/4/5/9-9--7-7----------|
A|-5-5--3/5-5-5--3-3/2/5/7-7--5-5----------|(2x)
E|-3-3-------------------------------------|

Last Chorus:

Do the bit with palm muting 2 times
Then A5 C5 and G5
Back to A5 C5 (once) and then D5 (once), then G5 let ring.
 
 

Видео