Blink 182 - Country Song, аккорды

Прокрутка
Тональность
Шрифт
100
Bass
-------------------------------------------------------------
-------------------------------------------------------------
---3-----3-----3-----3------0--2-repeat throught song(mostly)
------3-----3-----3------3-----------------------------------
 
guitar
--------------------------------------------------------
------------------------------------5-------------------
------------------0-----------------5-------------------
------------------2-----------------3-------------------
--------0--2--3------------0--2--3-------------0--2--3--
-----3------------------3-------------------3-----------

------------------------------------------------------------------repeat a lot
------------------------------------------------------------------
-----0--0------0-----0--0------0------0--0-----0--0---------------
-----2--2------2-----2--2------2------2--2-----2--2---------------
------------------3----------------3---------------------0--2-----
------------3---------------3---------------3---------3-----------

guitar
------------------------------------------
------------------------------------------
------------------------------------------
------------------------------------------
---3-3-3-3-3-3-3-3-3-3-3-3--5-5-5-5-5-5-5-
---1-1-1-1-1-1-1-1-1-1-1-1--3-3-3-3-3-3-3-
 
 

Видео