Blink 182 - Fuck A Dog, аккорды

Прокрутка
Тональность
Шрифт
100
E|--------------------|
B|--0-----------------|
G|----0--0------------|
D|-0----0-----5-----7-|
A|----------3---3/5---|
E|--------------------|

E|--------------------|
B|---0----------------|
G|----0--0------------|
D|-0----0-----5-----7-|
A|----------3---3/5---|
E|--------------------|

E|--------------------|
B|---0----------------|
G|----0--0------------|
D|-0----0-----5-----7-|
A|----------3---3/5---|
E|--------------------|

E|--------------------|
B|--0-----------------|
G|----0--0------------|
D|-0----0-----5-----7-|
A|----------3---3/5---|
E|--------------------|

E|--------------------|
B|--------------------|
G|---4-0--0-----------|
D|-0----0-----5-----7-|
A|----------3---3-5---|
E|--------------------|

E|--------------------|
B|--------------------|
G|---4-0--0-----------|
D|-0----0-----5-----7-|
A|----------3---3-5---|
E|--------------------|

E|--------------------|
B|--------------------|
G|---4-0--0-----------|
D|-0----0-----5-----7-|
A|----------3---3-5---|
E|--------------------|

E|--------------------|
B|--------------------|
G|---4-0--0-----------|
D|-0----0-----5-----7-|
A|----------3---3-5---|
E|--------------------|

E|--------------------|
B|--------------------|
G|---4-0--0-----------|
D|-0----0-----5-----7-|
A|----------3---3-5---|
E|--------------------|

E|--------------------|
B|--------------------|
G|---4-0--0-----------|
D|-0----0-----5-----7-|
A|----------3---3-5---|
E|--------------------|

you can do any of these main riffs i've done 
if you want they both sound like it 
and somewhere in this song it stops and does this chord
E|---|
B|---|
G|-4-|
D|-5-|
A|-5-|
E|-3-|

and then at the end just before tom says "you" you play this
E|------------------|
B|--0---------------|
G|----0---0---------|
D|-0----0-----5-----|
A|----------3---3-5-|
E|------------------|
 
 

Видео