Blink 182 - Mutt, аккорды

Прокрутка
Тональность
Шрифт
100
Intro
G|--9---9---9---9---9---9---9---9---------------------------------|
D|77--77--77--77--77--77--77--77----7---7---7---7---7---7---7---7-|
A|--------------------------------55--55--55--55--55--55--55--55--|
E|----------------------------------------------------------------|

Main Riff
G|-------------------------------------------------------------------|
D|-------------------------------------------------------------------|
A|-00000000-00000000-0000-2222-4444-55555555-55555555-5555-9999-7777-|
E|-------------------------------------------------------------------|

G|------------------------------------------------------------------|
D|------------------------------------------------------------------|
A|-00000000-00000000-0000-2222-4444-55555555-5555-99999999-77777777-|
E|------------------------------------------------------------------|

Verse x4
G|---------------------------------------|
D|---------------------------------------|
A|-00000000-0000-22-44-99999999-77777777-|
E|---------------------------------------|

Right Before Chorus
G|-------------------------------------|
D|-------------------------------------|
A|-55555555-55555555-55555555-77777777-|
E|-------------------------------------|

Chorus x6
G|--------------------------------------|
D|-------------------------4------------|
A|-0-0-7h9p7-0-0-7h9p7-2-2---2--5-5-4-4-|
E|--------------------------------------|

Main Riff
G|-------------------------------------------------------------------|
D|-------------------------------------------------------------------|
A|-00000000-00000000-0000-2222-4444-55555555-55555555-5555-9999-7777-|
E|-------------------------------------------------------------------|

G|------------------------------------------------------------------|
D|------------------------------------------------------------------|
A|-00000000-00000000-0000-2222-4444-55555555-5555-99999999-77777777-|
E|------------------------------------------------------------------|

Verse x4
G|---------------------------------------|
D|---------------------------------------|
A|-00000000-0000-22-44-99999999-77777777-|
E|---------------------------------------|

Right Before Chorus
G|-------------------------------------|
D|-------------------------------------|
A|-55555555-55555555-55555555-77777777-|
E|-------------------------------------|

Chorus x6
G|--------------------------------------|
D|-------------------------4------------|
A|-0-0-7h9p7-0-0-7h9p7-2-2---2--5-5-4-4-|
E|--------------------------------------|

Interlude x2
G|-------------------|
D|-------------------|
A|-00----22----55-44-|
E|-------------------|

Chorus x6
G|--------------------------------------|
D|-------------------------4------------|
A|-0-0-7h9p7-0-0-7h9p7-2-2---2--5-5-4-4-|
E|--------------------------------------|
Play twice under the guitar's main riff and then the actully chorus

Outro
G|-----------------|    |------| |-14-| hit that last chord
D|-----------------| x2 |------| |-14-| in different rythems
A|-0~~~-2~~~-5~-4~-|    |-0~~~-| |----|
E|-----------------|    |------| |----|
 
 

Видео