Blink 182 - Action (bass), аккорды

Прокрутка
Тональность
Шрифт
100
Intro - Note: Don't play anything here.
 
First Verse - Note: Not sure if you play this.
G|-----------------|
D|-----------------|
A|-----------------| x8
E|-00000000000-444-|

Chorus - (Fate fell short this time...) 
Note: You can double the notes,
if you think it sounds better.
G|------------------------------------|
D|------------------------------------|
A|----------2-2-2-2--4-4-4-4--0-0-0-0-| x2
E|-0-0-0-0----------------------------|

Pre-Verse - Note: Guitar plays a riff here.

Second Verse - Note: Not sure if you play this. 
Guitar plays its riff twice.
Then, continue.
G|-----------------|
D|-----------------|
A|-----------------| x6
E|-00000000000-444-|

Chorus - (Fate fell short this time...) - 
Note: You can double the notes,
if you think it sounds better.
G|------------------------------------|
D|------------------------------------|
A|----------2-2-2-2--4-4-4-4--0-0-0-0-| x2
E|-0-0-0-0----------------------------|

Bridge - Note:
Tom sings the chorus. Then, continue. 
I'm not sure if you play this.
G|-----------------|
D|-----------------|
A|-2-2-2-2-2-2-2-2-| x4
E|-----------------|

Note: On every note, past this point, 
you can double the amount of notes, if you
think it sounds better.
G|------------------------------------|
D|------------------------------------|
A|----------2-2-2-2--4-4-4-4--0-0-0-0-| x1
E|-0-0-0-0----------------------------|

G|------------------------------|
D|------------------------------|
A|----------2-2-2-2--4-4-4-4--0-| x1
E|-0-0-0-0----------------------|

Ending
G|------------------------------------|
D|------------------------------------|
A|----------2-2-2-2--4-4-4-4--0-0-0-0-| x8
E|-0-0-0-0----------------------------|

G|-----------------------|
D|-----------------------|
A|----------2-2-2-2--4-4-| x1
E|-0-0-0-0---------------|
 
 

Видео