Blink 182 - Going Away To College (bass), аккорды

Прокрутка
Тональность
Шрифт
100
Intro
G|-----|
D|-----|
A|-7~~-| hit this note towards the end of the intro
E|-----|

Main Riff and Verse x4
G|-------------------------------------|
D|-------------------------------------|
A|-------------------77777777-99999999-|
E|-77777777-77777777-------------------|

Other Verse
G|--------------------------|
D|--------------------------|
A|--------77777777-99999999-|
E|-7-77-7-------------------|

Main Riff and Verse x4
G|-------------------------------------|
D|-------------------------------------|
A|-------------------77777777-99999999-|
E|-77777777-77777777-------------------|

Other Verse
G|--------------------------|
D|--------------------------|
A|--------77777777-99999999-|
E|-7-77-7-------------------|

Chorus x4
G|-------------------------------------|
D|-------------------------------------|
A|-66666666-77777777-22222222----------|
E|----------------------------22222222-|

Main Riff and Verse x4
G|-------------------------------------|
D|-------------------------------------|
A|-------------------77777777-99999999-|
E|-77777777-77777777-------------------|

Other Verse
G|--------------------------|
D|--------------------------|
A|--------77777777-99999999-|
E|-7-77-7-------------------|

Chorus x4
G|-------------------------------------|
D|-------------------------------------|
A|-66666666-77777777-22222222----------|
E|----------------------------22222222-|

Interlude
G|----------------------------------------|
D|----------------------------------------|
A|------7~~~-6h7p6----------6-7~-99999999-|
E|-7~~~------------7~~-7-h9---------------|

Chorus
G|-------------------------------------| |---------------------------------|
D|-------------------------------------| x3 |---------------------------------|
A|-66666666-77777777-22222222----------| |-66666666-77777777-22222222-9~~~-|
E|----------------------------22222222-| |---------------------------------|
 
 

Видео