Blink 182 - 21 Days, аккорды

Прокрутка
Тональность
Шрифт
100
Chords:
D5 G5 F#5 E5
e|---------------------|
B|---------------------|
G|--7--------------9---|
D|--7----5----4----9---|
A|--5----5----4----7---|
E|-------3----2--------|
 
Intro:(clean)
e|--------|
B|--------|
G|--------|
D|--------|
A|--5-----|
E|--------|
play this note over and over for four measures

Riff 1: (clean x4, then distorted x2)
e|--------------------------------------------------------------------|
B|--------------------------------------------------------------------|
G|2/11-7-7-7-11-11---2/11-9-9-9-7-7-----------------------------------|
D|--------------------------------------------------------------------|
A|--------------------------------------------------------------------|
E|--------------------------------------------------------------------|

1st Verse:
D5 G5 F#5
My mind wanders as I'm trying not to fall in love with you
D5 G5 E5
'Cause everytime I wake I ponder on my mistakes of
D5 G5 F#5
What I said, it is always my esteem that I sure lose
D5 G5 E5
Playing those stupid games as I always end up chasing you

Riff 1 x2

Chorus:
E5 G5 D5xD5xD5(palm mutes)
I can't help myself anymore
Rehearsing my thoughts as I'm too scared to come to your door
I pushed it all aside just to stand next to you
Now you won't talk to me for something that I didn't Do

D5 D5 (strum once, distortion fades out)
It's not going to work

Riff 2:(the bass line again, as there is no actual guitar part here) x2
e|--------------------------------------------------------------------|
B|--------------------------------------------------------------------|
G|--------------------------------------------------------------------|
D|--------------------------------------------------------------------|
A|-5-5-5-5-5-5-5-5-5-5-5-5-5-5-7-7-7-7-7-7-7-7-9-9-9-9-5-5-5-5--------|
E|--------------------------------------------------------------------|

2nd Verse: w/ Riff 2
And I'm trying not to think of you
I'm all confused as I think of the things that I should Do
I'm all shook up as I get all nervous inside
My emotions are something that I will always hide (away)

Outro: clean x2, then distorted x8
e|--------------------------------------------------------------------|
B|--------------------------------------------------------------------|
G|-7-9-11-12-11-9---7-9-11-9-7-7--------------------------------------|
D|--------------------------------------------------------------------|
A|--------------------------------------------------------------------|
E|--------------------------------------------------------------------|
 
 

Видео