Blink 182 - A Letter To Elise, аккорды

Прокрутка
Тональность
Шрифт
100
Intro: (lots of flanger and distortion with 50% reverb)
e|-------------------------------------------------------------------------|
B|-------------------------------------------------------------------------|
G|-------------------------------------------------------------------------|
D|-11/14-14-14-14-11-11-9-9-9-11-11-7-7-7---(x3)---------------------------|
A|-------------------------------------------------------------------------|
E|-------------------------------------------------------------------------|
^^
End that / fourth time with this / ^^
e|---------------------------------------------------^^--------------------|
B|---------------------------------------------------^^--------------------|
G|---------------------------------------------------^^--------------------|
D|-12-12-12-12-12-12-12-12------(x1)------<<<<<<<(play both riffs x2)------|
A|-0--0--0--0--0--0--0--0--------------------------------------------------|
E|-------------------------------------------------------------------------|

Verse: (lots of flanger and a little distortion with 25% reverb)
e|-------------------------------------------------------------------------|
B|-------------------------------------------------------------------------|
G|------------------------------9-9-9-9------------------------------------|
D|--11-11-11-11-9-9-9-9-7-7-7-7-7-7-7-7----(x2)----------------------------|
A|------------------------------0-0-0-0------------------------------------|
E|-------------------------------------------------------------------------|

Intro: (lots of flanger and distortion with 50% reverb)
e|-------------------------------------------------------------------------|
B|-------------------------------------------------------------------------|
G|-------------------------------------------------------------------------|
D|-11/14-14-14-14-11-11-9-9-9-11-11-7-7-7---(x3)---------------------------|
A|-------------------------------------------------------------------------|
E|-------------------------------------------------------------------------|
^^
End that / fourth time with this / ^^
e|---------------------------------------------------^^--------------------|
B|---------------------------------------------------^^--------------------|
G|---------------------------------------------------^^--------------------|
D|-12-12-12-12-12-12-12-12------(x1)------<<<<<<<(play both riffs x2)------|
A|-0--0--0--0--0--0--0--0--------------------------------------------------|
E|-------------------------------------------------------------------------|

Verse: (lots of flanger and a little distortion with 25% reverb)
e|-------------------------------------------------------------------------|
B|-------------------------------------------------------------------------|
G|------------------------------9-9-9-9------------------------------------|
D|--11-11-11-11-9-9-9-9-7-7-7-7-7-7-7-7----(x2)-----(play all of verse x4)-|
A|------------------------------0-0-0-0------------------------------------|
E|-------------------------------------------------------------------------|

Chorus I: 
(lots of distortion with 25% reverb and a little bit of fanger)
e|-------------------------------------------------------------------------|
B|-------------------------------------------------------------------------|
G|--99999999--6666---------------------------------------------------------|
D|--77777777--xxxx-7777--------(x3)----------------------------------------|
A|--77777777--4444-xxxx----------------------------------------------------|
E|-----------------5555----------------------------------------------------|

Chorus II: 
(lots of distortion with 25% reverb and a little bit of fanger)
e|-------------------------------------------------------------------------|
B|-------------------------------------------------------------------------|
G|--------------------------------66666666---------------------------------|
D|--55555555--44444444--55555555--xxxxxxxx---------------------------------|

A|--xxxxxxxx--xxxxxxxx--xxxxxxxx--44444444---------------------------------|
E|--33333333--22222222--33333333-------------------------------------------|

e|-------------------------------------------------------------------------|
B|-------------------------------------------------------------------------|
G|------------666666666------------6666------------------------------------|
D|--55555555--xxxxxxxxx--55555555--xxxx--9999------------------------------|
A|--xxxxxxxx--444444444--55555555--4444--xxxx------------------------------|
E|--33333333-------------33333333--------7777------------------------------|

Break I: 
(lots of distortion with 25% reverb and a little bit of fanger)
e|-------------------------------------------------------------------------|
B|--10-----10-12-----------------------------------------------------------|
G|-----9---------9---------------------------------------------------------|
D|-------7---------7-----------(x2)----------------------------------------|
A|-------0---------0-------------------------------------------------------|
E|-------------------------------------------------------------------------|

Break II: 
(lots of distortion with 25% reverb and a little bit of fanger)
e|---------------------------------------------------------------------------|
B|-------------------------------------------------------------------------|
G|----------------------99999999--6666--4444-------------------------------|
D|--77777777--99999999--xxxxxxxx--xxxx--xxxx-------------------------------|
A|--xxxxxxxx--xxxxxxxx--77777777--4444--2222-------------------------------|
E|--55555555--77777777-----------------------------------------------------|

Intro: (Clean with a little bit of flanger and 25% reverb)
e|-------------------------------------------------------------------------|
B|-------------------------------------------------------------------------|
G|-------------------------------------------------------------------------|
D|-11/14-14-14-14-11-11-9-9-9-11-11-7-7-7---(x3)---------------------------|
A|-------------------------------------------------------------------------|
E|-------------------------------------------------------------------------|
^^
End that / fourth time with this / ^^
e|---------------------------------------------------^^--------------------|
B|---------------------------------------------------^^--------------------|
G|---------------------------------------------------^^--------------------|
D|-12-12-12-12-12-12-12-12------(x1)------<<<<<<<(play both riffs x1)------|
A|-0--0--0--0--0--0--0--0--------------------------------------------------|
E|-------------------------------------------------------------------------|

Outro: 
(lots of distortion with 25% reverb and a little bit of fanger)
e|-------------------------------------------------------------------------|
B|-------------------------------------------------------------------------|
G|------------99999999--55555555--77777777---------------------------------|
D|--77777777--99999999--77777777--77777777---------------------------------|
A|--77777777--77777777--44444444--55555555---------------------------------|
E|--55555555---------------------------------------------------------------|
^^
e|-----------------------------------------------------------^^------------|
B|-----------------------------------------------------------^^------------|
G|--------------------------------77777777-------------------^^------------|
D|--77777777--55555555--44444444--77777777----<<<<<<<(play both riffs x4)--|
A|--77777777--77777777--44444444--55555555---------------------------------|
E|--55555555--44444444--22222222-------------------------------------------|
 
 

Видео