Blink 182 - Don't Leave Me (bass), аккорды

Прокрутка
Тональность
Шрифт
100
Intro x2:
G|-----------------------------------------|
D|-----------------------------------------|
A|----0-000----5-555----2-222----5555-7777-|
E|-----------------------------------------|
I think Mark pretty much lets each note ring, 
but when I play it, I don't
 
Verse:
G|--------------------------------------------------------------------------|
D|--------------------------------------------------------------------------|
A|----------55555555----------55555555----------55555555----------5555-7777-|
E|-55555555----------77777777----------55555555----------77777777-----------|

Chorus:
G|---------------------|    |-----------------|
D|---------------------| x3 |-----------------|
A|-----------5555-7777-|    |-----------5-5-5-|
E|-5555-7777-----------|    |-5555-7777-------|

Intro x2:
G|-----------------------------------------|
D|-----------------------------------------|
A|----0-000----5-555----2-222----5555-7777-|
E|-----------------------------------------|

Verse:
G|--------------------------------------------------------------------------|
D|--------------------------------------------------------------------------|
A|----------55555555----------55555555----------55555555----------5555-7777-|
E|-55555555----------77777777----------55555555----------77777777-----------|

Chorus:
G|---------------------|    |-----------------|
D|---------------------| x3 |-----------------|
A|-----------5555-7777-|    |-----------5-5-5-|
E|-5555-7777-----------|    |-5555-7777-------|

Interlude x8:
G|---------------------|
D|-7777-9999-7777-7777-|
A|-0000-7777-5555-5555-|
E|---------------------|
Then right before the chorus, I like to do a slide on the E string

Chorus:
G|---------------------|    |-----------------|
D|---------------------| x3 |-----------------|
A|-----------5555-7777-|    |-----------5-5-5-|
E|-5555-7777-----------|    |-5555-7777-------|

Outro:
G|------------------------------------------|
D|------------------------------------------|
A|----------55555555----------5-------------|
E|-55555555----------77777777------5~~~---5-| 
 
 

Видео