Blink 182 - Cacophony, аккорды

Прокрутка
Тональность
Шрифт
100
INTRO
play 2x
E|--------------------------------------------------------------------------|
B|--------------------------------------------------------------------------|
G|-5--5--x--5--5--5----10-10---7----5--5--5--x--5--5--5--x--5---5----4----5-|
D|-x--x--x--x--x--x----x--x----x----x--x--x--x--x--x--x--x--x---x----x----x-|
A|-3--3--x--3--3--3----8--8----5----3--3--3--x--3--3--3--x--3---3----2----3-|
E|--------------------------------------------------------------------------|
 
THEN PLAY
play 1x
E|-------------------------------------------------|
B|-------------------------------------------------|
G|-2-2-2-2-2-2-2-2-----------------2-2-2-2-2-2-2-2-|
D|-2-2-2-2-2-2-2-2--3--3-3--3-3--2-2-2-2-2-2-2-2---|
A|-0-0-0-0-0-0-0-0--3--3-3--3-3--0-0-0-0-0-0-0-0---|
E|-----------------------1--1-1--1-1---------------|

E|--------------------------------------------|
B|--------------------------------------------|
G|-5--12--12-12-------------------------------|
D|-x--x---x---x---3-3-3-3-3-3-3-3-3-----------|
A|-3--10--10-10---3-3-3-3-3-3-3-3-3-----------|
E|--------------------------1-1-1-1-1-1-1-1-1-|

VERSE: (after you play intro 1x)
E|---------------------------------------------------------|
B|---------------------------------------------------------|
G|---------------------------------------------------------|
D|------------------------------------2-2h3p2-------2------|
A|---------3-------------3------0-----------------3------3-|
E|-0--0-------0--3--3------3-------------------------------|

INTERLUDE:
E|--------------------------------------------------------------|
B|--------------------------------------------------------------|
G|-5--5-5-5-5-5--5--5-5-5-5-5--5--5-5-5-5-5---------------------|
D|-5--5-5-5-5-5--5--5-5-5-5-5--5--5-5-5-5-5-----3--s-5----------|
A|-3--3-3-3-3-3--3--3-3-3-3-3--3--3-3-3-3-3-----3--s-5----------|
E|-------------------------------------------------------1--s-3-|

VERSE:
on last time play this
E|----------------------------------------------------------------------------|
B|----------------------------------------------------------------------------|
G|-5-5-5-5-5-5-5-5--2-2-2-2-2-2-2-2-------------------------------------------|
D|-5-5-5-5-5-5-5-5--2-2-2-2-2-2-2-2---3-3-3-3-3-3-3-3-3-3-3-3-3-3-3-3---------|
A|-3-3-3-3-3-3-3-3--0-0-0-0-0-0-0-0---3-3-3-3-3-3-3-3-3-3-3-3-3-3-3-3---------|
E|--------------------------------------------1-1-1-1-1-1-1-1-1-1-1-1-1-1-1-1-|

E|--------------------|
B|--------------------|
G|--5-5-5-5-5-5-5-5---|
D|--x-x-x-x--x-x-x--x-|
A|--3-3-3-3-3-3-3-3---|
E|--------------------|
( I'd think of all the things....)

CHORUS:
E|--------------------------------------------------|
B|--------------------------------------------------|
G|-9-9-9-9-9-9-9-9-10101010101010-5-5-5-5-5-5-5-5---|
D|-9-9-9-9-9-9-9-9-10101010101010-5-5-5-5-5-5-5-5---|
A|-7-7-7-7-7-7-7-7--8-8-8-8-8-8-8-8-3-3-3-3-3-3-3-3-|
E|--------------------------------------------------|

E|------------------------------------------------------|
B|------------------------------------------------------|
G|-2-2-2-2-2-2-2-2---9-9-9-9-9-9-9-9----10101010101010--|
D|-2-2-2-2-2-2-2-2---9-9-9-9-9-9-9-9----10101010101010--|
A|---0-0-0-0-0-0-0-0---7-7-7-7-7-7-7-7--8-8-8-8-8-8-8-8-|
E|------------------------------------------------------|

E|---------------------------------------------------|
B|---------------------------------------------------|
G|-x-x-x-5-x-x-x-5-x-x-x-5-x-x-x-5---9-9-9-9-9-9-9-9-|
D|-x-x-x-5-x-x-x-5-x-x-x-5-x-x-x-5---9-9-9-9-9-9-9-9-|
A|-x-x-x-3-x-x-x-3-x-x-x-3-x-x-x-3---7-7-7-7-7-7-7-7-|
E|---------------------------------------------------|

E|--------------------------------------------------|
B|--------------------------------------------------|
G|-10101010101010--5-5-5-5-5-5-5-5--2-2-2-2-2-2-2-2-|
D|-10101010101010--5-5-5-5-5-5-5-5--2-2-2-2-2-2-2-2-|
A|-8-8-8-8-8-8-8-8-3-3-3-3-3-3-3-3--0-0-0-0-0-0-0-0-|
E|--------------------------------------------------|

E|---------------------------------------------------------------|
B|---------------------------------------------------------------|
G|-9-9-9-9-9-9-9-9--10101010101010--5--5-5--5-5--4--4--4--4-4--5-|
D|-9-9-9-9-9-9-9-9--10101010101010--x--x-x--x-x--x--x--x--x-x--x-|
A|-7-7-7-7-7-7-7-7--8-8-8-8-8-8-8-8-3--3-3--3-3--2--2--2--2-2--3-|
E|---------------------------------------------------------------|

OUTRO:
E|-------------------------------------------------------------------------|
B|-------------------------------------------------------------------------|
G|-4-4-4-4--2-2-2-2-----------9-9-9-9--5----5--5---5--5----4--4-4--4-4---5-|
D|-4-4-4-4--2-2-2-2--3-3-3-3--9-9-9-9--5----5--5---5--5----x--x-x--x-x---x-|
A|-2-2-2-2--0-0-0-0--3-3-3-3--7-7-7-7--3----3--3---3--3----2--2-2--2-2---3-|
E|-----------------------1-1-1-1-------------------------------------------|
 
 

Видео