Blink 182 - Dumpweed (bass), аккорды

Прокрутка
Тональность
Шрифт
100
Intro
G|---------------------|
D|---------------------|
A|-----------0~~~-0~~~-|
E|-0~~~-0~~~-----------|
 
Main Riff x2
G|-------------------------------------|
D|-------------------------------------|
A|----------00000000-22222222-22222200-|
E|-00000000----------------------------|

Verse x2
G|-------------------------------------------------------------------------|
D|-------------------------------------------------------------------------|
A|----------222222------------222222---00000000-222222---00000000-222222-4-|
E|-00000000----------00000000----------------------------------------------|

Intro (with a different ending)
G|--------------------------------|
D|--------------------------------|
A|-----------0~~~-00000000-222222-|
E|-0~~~-0~~~----------------------|

Chorus
G|-------------------------------------------------------------------------|
D|-------------------------------------------------------------------------|
A|----------22222222-000000000-22222222----------22222222-00000000-2---2---|
E|-00000000-----------------------------00000000---------------------------|

Main Riff x2
G|-------------------------------------|
D|-------------------------------------|
A|----------00000000-22222222-22222200-|
E|-00000000----------------------------|

Verse x1
G|-------------------------------------------------------------------------|
D|-------------------------------------------------------------------------|
A|----------222222------------222222---00000000-222222---00000000-222222-4-|
E|-00000000----------00000000----------------------------------------------|

Intro (with a different ending)
G|--------------------------------|
D|--------------------------------|
A|-----------0~~~-00000000-222222-|
E|-0~~~-0~~~----------------------|

Chorus x2
G|-------------------------------------------------------------------------|
D|-------------------------------------------------------------------------|
A|----------22222222-000000000-22222222----------22222222-00000000-2---2---|
E|-00000000-----------------------------00000000---------------------------|

Verse x4
G|------------------------------------------------------------------------|
D|------------------------------------------------------------------------|
A|----------222222------------222222---00000000-222222---00000000-222222--|
E|-00000000----------00000000---------------------------------------------|
 
 

Видео