Blink 182 - All The Small Things (btab), аккорды

Прокрутка
Тональность
Шрифт
100
Intro:
G|------|
D|------|
A|------|
E|-3--1-|
 
Main Riff: x2
G|-------------------------------------|
D|----------33333333-------------------|
A|-33333333----------------------------|
E|-------------------33333333-----1--1-|

Verse: x4
G|-------------------------------------|
D|-------------------------------------|
A|-33333333----------------------------|
E|----------33333333-11111111-33333333-|

Pre-Chorus:
G|---------------------------------------------|
D|---------------------------------------------|
A|-33333333-33333333-1010101010101010-88888888-|
E|---------------------------------------------|
Those are 10's

Chorus: x2
G|---------------------------------------------|
D|---------------------------------------------|
A|-------------------1010101010101010-88888888-|
E|-88888888-88888888---------------------------|

Main Riff: x2
G|-------------------------------------|
D|-------------------------------------|
A|-33333333-33333333-------------------|
E|-------------------33333333------1-1-|

Verse: x2
G|-------------------------------------|
D|-------------------------------------|
A|-33333333----------------------------|
E|----------33333333-11111111-33333333-|

Pre-Chorus:
G|---------------------------------------------|
D|---------------------------------------------|
A|-33333333-33333333-1010101010101010-88888888-|
E|---------------------------------------------|

Chorus: x2
G|---------------------------------------------|
D|---------------------------------------------|
A|-------------------1010101010101010-88888888-|
E|-88888888-88888888---------------------------|

Interlude:
G|----------------|    |---------------------------------------------|
D|-------10~--12~-| x3 |---------------------------------------------|
A|-10~~~--8~---8~-|    |-------------------88888888-1010101010101010-|
E|--8~~~----------|    |-88888888-88888888---------------------------|

Chorus:
G|---------------------------------------------|    |-------|
D|---------------------------------------------| x4 |-------|
A|-------------------1010101010101010-88888888-|    |-10~~~-|
E|-88888888-88888888---------------------------|    |--8~~~-|
 
 

Видео