Blink 182 - Angellica And Me, аккорды

Прокрутка
Тональность
Шрифт
100
E----9--11--12-11-9----------------------------------------|-----------------
B-12----------------12--11--9------------------------------|-----------------
G------------------------------11-9-8----------------------|-----------------
D-------------------------------------11-9-8---------------|--------11-------
A--------------------------------------------11-9-7--------|---11------------
E---------------------------------------------------11-9-7-|-9----------9----
 
/-----
E-12--12--12--12-|--------------------------|----------------|---------------
B-11--11--11--11-|--------------------------|------------12--|-14/12---------
G----------------|-----9--------------------|----------------|---------------
D----------------|-----9---11/9-------------|-------11-------|---------------
A----------------|-/11-----------9-10-9-7---|----11----------|---------------
E----------------|------------------------9-|--9-------9-----|---------------

/--------- /-------- 1/2
E------------------------------------|-----------14---13--11--------|---------
B------------------------------------|-----12----------------14--12-|---------
G--13-12-13-12--11--9--11-9---11--9--|-/11----11--------------------|---------
D------------------------------------|------------------------------|---------
A------------------------------------|------------------------------|---------
E------------------------------------|------------------------------|---------


E----13-14-16-14-13-14-13----13---------|-19-----------------------------|---
B-16----------------------16----16-14-16|----16--------------------------|---
G---------------------------------------|-------16----------16--------18-|---
D---------------------------------------|----------16-13-----------16----|---
A---------------------------------------|----------------14-----14-------|---
E---------------------------------------|--------------------------------|---

/------
E--------------------------------------14-16--18-16-14------------------------
B-----------------------------14-16-17----------------------------------------
G--------------------13-15-16-------------------------------------------------
D-----------13-14-16----------------------------------------------------------
A--13-14-16-------------------------------------------------------------------
E-----------------------------------------------------------------------------

E--19-19-~-------|--19-------16-------19-------16-------19-------16-|------14-
G-------------12-|-----17/14----14/17----17/14----14/17----17/14----|-17-----
G----------------|--------------------------------------------------|---------
D----------------|--------------------------------------------------|---------
A----------------|--------------------------------------------------|---------
E----------------|--------------------------------------------------|---------

E------------14-----------14-----------14-------14-----14-----14|-------------
B--17-14-17----17-14-17----17-14-17----17------17----17---------|-17-16-14----
G---------------------------------------------------------------|----------17-
D---------------------------------------------------------------|-------------
A---------------------------------------------------------------|-------------
E---------------------------------------------------------------|-------------
B T
/----- /------
E---------------------------------|----------------|-------------------------
B---------------------------------|----------------|-5-(5)-5---12(12)12---5--
G--16--15-14----------------------|-------------4--|-------------------------
D------------16-14----------16----|-----4---6------|-------------------------
A------------------16-15-14----14-|---2------------|-------------------------
E---------------------------------|-0--------------|-------------------------
T
/------ /----------------
E-12(12)12---7-|-12----------------------------------------------------------|
B--------------|-12--------12--14--17--14--12-------------12-----------------|
G--------------|--------13----------------------13-----13--------------------|
D--------------|-----14-----------------------------14-----------------------|
A--------------|-------------------------------------------------------------|
E--------------|-------------------------------------------------------------|


A5 G5
We made out yeah
A5 F#7dim
and she took off my pants
A5
and asked whats these stains?
Em9+7
Oh god this it
A5 G5
i came too early
Cm7 D5
she decided i was shit

A5 E5
left me for a pet shop boy

riff 1 played over<<
im 35 male and like anal toys (Repeat X 11)