Blink 182 - What's My Age Again, аккорды

Прокрутка
Тональность
Шрифт
100
Intro
e|-------6-----------6-----------6-----------6----|
B|----7-----7-----7-----7-----7-----7-----7-----7-|
G|-4----------------------------------------------|
D|-------------4----------------------------------|
A|-------------------------4-----------6----------|
E|------------------------------------------------|

I took her out, it was a Friday night, I wore cologne,
to get the feeling right. We started making out, and
she took off my pants, but then I turned on the tv, and
that?s about the time

1st Verse - Play the intro riff.

Chorus
e|----------------------------------------|
B|----------------------------------------|
G|---------6-6-------8-8-------4--4-4-4-0-|
D|-4----0--6-6----0--8-8----0--4--4-4-4-0-|
A|-4----0--4-4----0--6-6----0--2--2-2-2-0-|
E|-2----0---------0---------0-------------|

e|-------6-----------6-----------6-----------6----|
B|----7-----7-----7-----7-----7-----7-----7-----7-|
G|-4----------------------------------------------|
D|-------------4----------------------------------|
A|-------------------------4-----------6----------|
E|------------------------------------------------|

2nd Verse
e|------------------------------------|
B|------------------------------------|
G|-4-4-4-4-----------6-6-6-6--8-8-8---|
D|-4-4-4-4--4-4-4-0--6-6-6-6--8-8-8-0-|
A|-2-2-2-2--4-4-4-0--4-4-4-4--6-6-6-0-|
E|----------2-2-2-0-----------------0-|

she walked away from me.
Nobody likes you when your twenty-three
And I?m still more amused by tv shows.
What the hell is A.D.D.? My friends say I should
act my age. What?s my age again? What?s my age again?

Intro

Verse 2 (Palm Mute the Chorus)

Then later on, on the drive home, I called
her mom, from a pay phone. I said "I was the cops, and
your husband?s in jail. The state looks down on sodomy."
And that?s about the time

Chorus

that bitch hung up on me.
Nobody likes you when you?re twenty-three.
And I?m still more amused by prank phone calls,
what the hell is caller ID? My friends say I should
act my age. What?s my age again? What?s my age again?

Interlude
e|---6---6-----6---|
B|-----7---7-----7-|
G|-4---------4-----|
D|-----------------|
A|-----------------|
E|-----------------|
w/flanger
e|-6------------|---------------|
B|------7-----7-|---------------|
G|--------------|-----------3h4-|flanger part 4x
D|--------------|-4--4--4-------|
A|--------------|---------------|
E|--------------|---------------|
 w/flanger
e|----------2-------|-------------2---------|
B|------------------|-----------------------|
G|----3-----------3-|-------3-------------3-|
D|-4-----4-----4----|-4--4-----4-------4----|variate this
A|------------------|-----------------------|and repeat
E|------------------|-----------------------|

Outro
Play the chorus
 
 

Видео