Blink 182 - M&Ms (bass), аккорды

Прокрутка
Тональность
Шрифт
100
G|-------------------------------------------------------------|
D|2-2-2-2-2-2-2-2----------------------------------------------|
A|----------------2-2-2-2-2-2-2-4-4-4-4-4-4-4-4-0-0-0-0-0-0-0-0|
E|-------------------------------------------------------------|
 
G|-------------------------------------------------------------|
D|-------------------------------------------------------------|
A|----------------2-2-2-2-2-2-2-4-4-4-4-4-4-4-4-0-0-0-0-0-0-0-0|
E|0-0-0-0-0-0-0-0----------------------------------------------|

Chorus
G|--------------------------------|
D|--------------------------------|
A|------------------------2-2-2-2-|
E|2-2-2-2-5-5-5-5-0-0-0-0---------|
 
 

Видео