Blink 182 - Adam's Song, аккорды

Прокрутка
Тональность
Шрифт
100
Riff A:
Gtr. 1 w/clean tone
D|-----------------------------------------------------------------------|
A|-----------------------------------------------------------------------|
F|-----------------------------------------------------------------------|
C|---4--0-----4--0-----4--0-----4--0-----4--0-----4--0-----4--0-----4--0-|
G|-2--------2--------0--------0------------------------------------------|
D|-------------------------------------3--------3--------0--------3------|
2x

Verse 1:
Gtr. 1 & Gtr. 2 w/clean tone
P.M.
D|------------------------------------------------------------------|
A|------------------------------------------------------------------|
F|------------------------------------------------------------------|
C|-4-4-4-4-4-4-4-4--------------------------------------------------|
G|--5-5-5-5-5-5-5-5-5-5-5-5-5-5-5-5-9-9-9-9-9-9-9-9-5-5-5-5-5-5-5-5-|
D|------------------3-3-3-3-3-3-3-3-7-7-7-7-7-7-7-7-3-3-3-3-3-3-3-3-|
4x

Interlude:
Gtr. 1 w/clean tone
D|---------------------------------------------------------------------------|
A|---------------------------------------------------------------------------|
F|------0--------0----------0--------0---------------------------------------|
C|---7--------7----------9--------9----------4--0-----4--0-----4--0-----4--0-|
G|-5--------5----------7--------7----------2--------2------------------------|
D|-----------------------------------------------------------3--------3------|
2x

Chorus 1:
Gtr.1 & Gtr.2 w/dist.
D|---------------------------------------------------------------|
A|---------------------------------------------------------------|
F|-7-7-7-7-7-7-7-7-9-9-9-9-9-9-9/4-4-4-4-4-4-4-4-----------------|
C|-x-x-x-x-x-x-x-x-x-x-x-x-x-x-x/x-x-x-x-x-x-x-x-5-5-5-5-5-5-5-5-|
G|-5-5-5-5-5-5-5-5-7-7-7-7-7-7-7/2-2-2-2-2-2-2-2-x-x-x-x-x-x-x-x-|
D|-----------------------------------------------3-3-3-3-3-3-3-3-|

Gtr. 1
D|---------------------------------------------------------------|
A|---------------------------------------------------------------|
F|-7-7-7-7-7-7-7-7-9-9-9-9-9-9-9/4-4-4-4-4-4-4-4-----------------|
C|-x-x-x-x-x-x-x-x-x-x-x-x-x-x-x/x-x-x-x-x-x-x-x-5-5-5-5-5-5-5-5-|
G|-5-5-5-5-5-5-5-5-7-7-7-7-7-7-7/2-2-2-2-2-2-2-2-x-x-x-x-x-x-x-x-|
D|-----------------------------------------------3-3-3-3-3-3-3-3-|

Gtr. 2
D|-------------------------------------------------|
A|-------------------------------------------------|
F|-11-11-11-11-11-11-11-11-12-12-12-12-12-12-12-12-|
C|--x--x--x--x--x--x--x--x--x--x--x--x--x--x--x--x-|
G|--9--9--9--9--9--9--9--9-10-10-10-10-10-10-10-10-|
D|-------------------------------------------------|

D|-------------------------------------------------|
A|-------------------------------------------------|
F|-11-11-11-11-11-11-11-11-12-12-12-12-12-12-12-12-|
C|--x--x--x--x--x--x--x--x--x--x--x--x--x--x--x--x-|
G|--9--9--9--9--9--9--9--9-10-10-10-10-10-10-10-10-|
D|-------------------------------------------------|

(I'm only putting 3 guitar parts this next part)
Gtr.1
D|---------------------------------------|
A|---------------------------------------|
F|-7-7-7-7-7-7-7-7-9-9-9-9-9-9-9-9-10-10-|
C|-x-x-x-x-x-x-x-x-x-x-x-x-x-x-x-x--x--x-|
G|-5-5-5-5-5-5-5-5-7-7-7-7-7-7-7-7--9--9-|
D|---------------------------------------|

D|-------------------------------------------|
A|-------------------------------------------|
F|-10-10-10-10-10-10-12-12-12-12-12-12-12-12-|
C|--x--x--x--x--x--x--x--x--x--x--x--x--x--x-|
G|--9--9--9--9--9--9-10-10-10-10-10-10-10-10-|
D|-------------------------------------------|

Gtr. 2
D|----------------------------------------|
A|----------------------------------------|
F|-11-11-11-11-11-11-11-11-12-12-12-12-12-|
C|--x--x--x--x--x--x--x--x--x--x--x--x--x-|
G|--9--9--9--9--9--9--9--9-10-10-10-10-10-|
D|----------------------------------------|

D|---------------------------------------------------|
A|---------------------------------------------------|
F|-12-12-12-11-11-11-11-11-11-11-11--7-7-7-7-7-7-7-7-|
C|--x--x--x--x--x--x--x--x--x--x--x--x-x-x-x-x-x-x-x-|
G|-10-10-10--9--9--9--9--9--9--9--9--5-5-5-5-5-5-5-5-|
D|---------------------------------------------------|

Gtr. 3
D|-----------------------------------------------------------------|
A|-----------------------------------------------------------------|
F|-7-7-7-7-7-7-7-7-9-9-9-9-9-9-9-9-4-4-4-4-4-4-4-4-----------------|
C|-7-7-7-7-7-7-7-7-9-9-9-9-9-9-9-9-4-4-4-4-4-4-4-4-5-5-5-5-5-5-5-5-|
G|-5-5-5-5-5-5-5-5-7-7-7-7-7-7-7-7-2-2-2-2-2-2-2-2-5-5-5-5-5-5-5-5-|
D|-------------------------------------------------3-3-3-3-3-3-3-3-|

Gtr.1
D|---------------------------------------|
A|---------------------------------------|
F|-7-7-7-7-7-7-7-7-9-9-9-9-9-9-9-9-10-10-|
C|-x-x-x-x-x-x-x-x-x-x-x-x-x-x-x-x--x--x-|
G|-5-5-5-5-5-5-5-5-7-7-7-7-7-7-7-7--9--9-|
D|---------------------------------------|

D|-------------------------------------------|
A|-------------------------------------------|
F|-10-10-10-10-10-10-12-12-12-12-12-12-12-12-|
C|--x--x--x--x--x--x--x--x--x--x--x--x--x--x-|
G|--9--9--9--9--9--9-10-10-10-10-10-10-10-10-|
D|-------------------------------------------|

Gtr. 2
D|--------------------------------------------|
A|--------------------------------------------|
F|-11-11-11-11-11-11-11-11-12-12-12-12-12-12--|
C|--x--x--x--x--x--x--x--x--x--x--x--x--x--x--|
G|---9--9--9--9--9--9--9--9-10-10-10-10-10-10-|
D|--------------------------------------------|

D|------------------------------------------------|
A|------------------------------------------------|
F|-12-12-11-11-11-11-11-11-11-11--7-7-7-7-7-7-7-7-|
C|--x--x--x--x--x--x--x--x--x--x--x-x-x-x-x-x-x-x-|
G|-10-10--9--9--9--9--9--9--9--9--5-5-5-5-5-5-5-5-|
D|------------------------------------------------|

Gtr. 3
D|-----------------------------------------------------------------|
A|-----------------------------------------------------------------|
F|-7-7-7-7-7-7-7-7-9-9-9-9-9-9-9-9-4-4-4-4-4-4-4-4-----------------|
C|-7-7-7-7-7-7-7-7-9-9-9-9-9-9-9-9-4-4-4-4-4-4-4-4-5-5-5-5-5-5-5-5-|
G|-5-5-5-5-5-5-5-5-7-7-7-7-7-7-7-7-2-2-2-2-2-2-2-2-5-5-5-5-5-5-5-5-|
D|-------------------------------------------------3-3-3-3-3-3-3-3-|

Interlude:
Riff A:
Gtr. 1 w/clean tone
D|----------------------------------------------------------------------|
A|----------------------------------------------------------------------|
F|----------------------------------------------------------------------|
C|---4--0-----4--0-----4--0-----4--0-----4--0-----4--0-----4--0----4--0-|
G|-2--------2--------0--------0-----------------------------------------|
D|-------------------------------------3--------3--------0--------3-----|
2x

Verse 2:
Gtr. 1 & Gtr. 2 w/clean tone
P.M.
D|-----------------------------------------------------------------|
A|-----------------------------------------------------------------|
F|-----------------------------------------------------------------|
C|-4-4-4-4-4-4-4-4-------------------------------------------------|
G|-5-5-5-5-5-5-5-5-5-5-5-5-5-5-5-5-9-9-9-9-9-9-9-9-5-5-5-5-5-5-5-5-|
D|-----------------3-3-3-3-3-3-3-3-7-7-7-7-7-7-7-7-3-3-3-3-3-3-3-3-|
4x

Interlude:
Gtr. 1 w/clean tone
D|--------------------------------------------------------------------------|
A|--------------------------------------------------------------------------|
F|-------0--------0----------0--------0-------------------------------------|
C|----7--------7----------9--------9--------4--0-----4--0-----2--0-----2--0-|
G|-5--------5----------7--------7--------2--------2-------------------------|
D|---------------------------------------------------------3--------3-------|
2x

Chorus 2:
Gtr.1 & Gtr.2 w/dist.
D|---------------------------------------------------------------|
A|---------------------------------------------------------------|
F|-7-7-7-7-7-7-7-7-9-9-9-9-9-9-9/4-4-4-4-4-4-4-4-----------------|
C|-x-x-x-x-x-x-x-x-x-x-x-x-x-x-x/x-x-x-x-x-x-x-x-5-5-5-5-5-5-5-5-|
G|-5-5-5-5-5-5-5-5-7-7-7-7-7-7-7/2-2-2-2-2-2-2-2-x-x-x-x-x-x-x-x-|
D|-----------------------------------------------3-3-3-3-3-3-3-3-|

Gtr. 1
D|---------------------------------------------------------------|
A|---------------------------------------------------------------|
F|-7-7-7-7-7-7-7-7-9-9-9-9-9-9-9/4-4-4-4-4-4-4-4-----------------|
C|-x-x-x-x-x-x-x-x-x-x-x-x-x-x-x/x-x-x-x-x-x-x-x-5-5-5-5-5-5-5-5-|
G|-5-5-5-5-5-5-5-5-7-7-7-7-7-7-7/2-2-2-2-2-2-2-2-x-x-x-x-x-x-x-x-|
D|-----------------------------------------------3-3-3-3-3-3-3-3-|

Gtr. 2
D|-------------------------------------------|
A|-------------------------------------------|
F|-11-11-11-11-11-11-11-11-12-12-12-12-12-12-|
C|--x--x--x--x--x--x--x--x--x--x--x--x--x--x-|
G|--9--9--9--9--9--9--9--9-10-10-10-10-10-10-|
D|-------------------------------------------|

D|-------------------------------------------------------|
A|-------------------------------------------------------|
F|-12-12-11-11-11-11-11-11-11-11-12-12-12-12-12-12-12-12-|
C|--x--x--x--x--x--x--x--x--x--x--x--x--x--x--x--x--x--x-|
G|-10-10--9--9--9--9--9--9--9--9-10-10-10-10-10-10-10-10-|
D|-------------------------------------------------------|

Gtr.1
D|---------------------------------------|
A|---------------------------------------|
F|-7-7-7-7-7-7-7-7-9-9-9-9-9-9-9-9-10-10-|
C|-x-x-x-x-x-x-x-x-x-x-x-x-x-x-x-x--x--x-|
G|-5-5-5-5-5-5-5-5-7-7-7-7-7-7-7-7--9--9-|
D|---------------------------------------|

D|-------------------------------------------|
A|-------------------------------------------|
F|-10-10-10-10-10-10-12-12-12-12-12-12-12-12-|
C|--x--x--x--x--x--x--x--x--x--x--x--x--x--x-|
G|--9--9--9--9--9--9-10-10-10-10-10-10-10-10-|
D|-------------------------------------------|

Gtr. 2
D|-------------------------------------------|
A|-------------------------------------------|
F|-11-11-11-11-11-11-11-11-12-12-12-12-12-12-|
C|--x--x--x--x--x--x--x--x--x--x--x--x--x--x-|
G|--9--9--9--9--9--9--9--9-10-10-10-10-10-10-|
D|-------------------------------------------|

D|------------------------------------------------|
A|------------------------------------------------|
F|-12-12-11-11-11-11-11-11-11-11--7-7-7-7-7-7-7-7-|
C|--x--x--x--x--x--x--x--x--x--x--x-x-x-x-x-x-x-x-|
G|-10-10--9--9--9--9--9--9--9--9--5-5-5-5-5-5-5-5-|
D|------------------------------------------------|

Gtr. 3
D|-----------------------------------------------------------------|
A|-----------------------------------------------------------------|
F|-7-7-7-7-7-7-7-7-9-9-9-9-9-9-9-9-4-4-4-4-4-4-4-4-----------------|
C|-7-7-7-7-7-7-7-7-9-9-9-9-9-9-9-9-4-4-4-4-4-4-4-4-5-5-5-5-5-5-5-5-|
G|-5-5-5-5-5-5-5-5-7-7-7-7-7-7-7-7-2-2-2-2-2-2-2-2-5-5-5-5-5-5-5-5-|
D|-------------------------------------------------3-3-3-3-3-3-3-3-|

Gtr.1
D|---------------------------------------|
A|---------------------------------------|
F|-7-7-7-7-7-7-7-7-9-9-9-9-9-9-9-9-10-10-|
C|-x-x-x-x-x-x-x-x-x-x-x-x-x-x-x-x--x--x-|
G|-5-5-5-5-5-5-5-5-7-7-7-7-7-7-7-7--9--9-|
D|---------------------------------------|

D|-------------------------------------------|
A|-------------------------------------------|
F|-10-10-10-10-10-10-12-12-12-12-12-12-12-12-|
C|--x--x--x--x--x--x--x--x--x--x--x--x--x--x-|
G|--9--9--9--9--9--9-10-10-10-10-10-10-10-10-|
D|-------------------------------------------|

Gtr. 2
D|-------------------------------------------|
A|-------------------------------------------|
F|-11-11-11-11-11-11-11-11-12-12-12-12-12-12-|
C|--x--x--x--x--x--x--x--x--x--x--x--x--x--x-|
G|--9--9--9--9--9--9--9--9-10-10-10-10-10-10-|
D|-------------------------------------------|

D|------------------------------------------------|
A|------------------------------------------------|
F|-12-12-11-11-11-11-11-11-11-11--7-7-7-7-7-7-7-7-|
C|--x--x--x--x--x--x--x--x--x--x--x-x-x-x-x-x-x-x-|
G|-10-10--9--9--9--9--9--9--9--9--5-5-5-5-5-5-5-5-|
D|------------------------------------------------|

Gtr. 3
D|-----------------------------------------------------------------|
A|-----------------------------------------------------------------|
F|-7-7-7-7-7-7-7-7-9-9-9-9-9-9-9-9-4-4-4-4-4-4-4-4-----------------|
C|-7-7-7-7-7-7-7-7-9-9-9-9-9-9-9-9-4-4-4-4-4-4-4-4-5-5-5-5-5-5-5-5-|
G|-5-5-5-5-5-5-5-5-7-7-7-7-7-7-7-7-2-2-2-2-2-2-2-2-5-5-5-5-5-5-5-5-|
D|-------------------------------------------------3-3-3-3-3-3-3-3-|

Interlude:
Gtr. 1 w/clean tone:
D|-----------------------------------------------------------------------------|
A|-----------------------------------------------------------------------------|
F|-----0-----0---------0-----0----------0-----0--------------0-----------------|
C|---4-----4-----4---4-----4-----4---4------4-------4-----4-----0-----0------0-|
G|-5-----5-----5---5-----5-----5---5------5-------5-----5-----------5------5---|
D|-----------------------------------------------------------------------------|

Gtr. 4(acoustic):
D|-----------------------------------------------------------2-----------------|
A|--------------------3-----------------------------3------------------3-------|
F|-----------------------------------2---------------------------------------2-|
C|-0---------------------------------------------------------------------------|
G|-----------------------------------------------------------------------------|
D|-----------------------------------------------------------------------------|

Gtr. 1 w/clean tone:
D|-----------------------------------------------------------------------------|
A|-----------------------------------------------------------------------------|
F|-----0---0-----------0-------------------------------------------0---0-------|
C|---4-------4---4---4-----4---0-------2---2---2p0---4-------0---4-------4---4-|
G|-5-----5-----5---5-----5---5---5-0-2---0---0-----0----0--2---5-----5-----5---|
D|-----------------------------------------------------------------------------|

Gtr. 4(acoustic):
D|-2-----------------------------------------------------2--------------------|
A|-------------------------3---------------------3----------------3--------3--|
F|------------------------------------2--------------------------------2------|
C|----------------------------------------------------------------------------|
G|----------------------------------------------------------------------------|
D|----------------------------------------------------------------------------|

Gtr. 1 w/clean tone:
D|-----------------------------------------------------------------------------|
A|-----------------------------------------------------------------------------|
F|-------0---------------------------------------------------------0---0-------|
C|----4--------4-----0-----------2-----2-----2p0-----4-------0---4-------4---4-|
G|-5--------5-----5-----5--0--2-----0-----0-------0-----0--2---5-----5-----5---|
D|-----------------------------------------------------------------------------|

Gtr. 1 w/clean tone:
D|------------------------------------------------------------------|
A|------------------------------------------------------------------|
F|-------0-----------------------------------------------------0----|
C|----4--------4------0-----------2-----2-----2p0-----4-----4-------|
G|-5--------5------5-----5--0--2-----0-----0-------5-----5--------5-|
D|------------------------------------------------------------------|

D|-----------------------------------------------------------------------------|
A|-----------------------------------------------------------------------------|
F|-----7-----7-----7-----7-----7-------7-------7--------7--------7--------7----|
C|---0-----0-----0-----0-----0---0---0------0--------0--------0--------0-----0-|
G|-5-----5-----5-----5-----5-------5-----5--------5--------5--------5----------|
D|-----------------------------------------------------------------------------|

D|------------------------------------------------|
A|------------------------------------------------|
F|-------7--------7--------7--------7--------7----|
C|----0--------0--------0--------0--------0-----0-|
G|-5--------5--------5--------5--------5----------|
D|------------------------------------------------|

Chorus 3:
Gtr.1
D|---------------------------------------|
A|---------------------------------------|
F|-7-7-7-7-7-7-7-7-9-9-9-9-9-9-9-9-10-10-|
C|-x-x-x-x-x-x-x-x-x-x-x-x-x-x-x-x--x--x-|
G|-5-5-5-5-5-5-5-5-7-7-7-7-7-7-7-7--9--9-|
D|---------------------------------------|

E|-------------------------------------------|
B|-------------------------------------------|
G|-10-10-10-10-10-10-12-12-12-12-12-12-12-12-|
D|--x--x--x--x--x--x--x--x--x--x--x--x--x--x-|
A|--9--9--9--9--9--9-10-10-10-10-10-10-10-10-|
E|-------------------------------------------|

Gtr. 2
D|----------------------------------------------|
A|----------------------------------------------|
F|-11-11-11-11-11-11-11-11-12-12-12-12-12-12-12-|
C|--x--x--x--x--x--x--x--x--x--x--x--x--x--x--x-|
G|--9--9--9--9--9--9--9--9-10-10-10-10-10-10-10-|
D|----------------------------------------------|

E|---------------------------------------------|
B|---------------------------------------------|
G|-12-11-11-11-11-11-11-11-11--7-7-7-7-7-7-7-7-|
D|--x--x--x--x--x--x--x--x--x--x-x-x-x-x-x-x-x-|
A|-10--9--9--9--9--9--9--9--9--5-5-5-5-5-5-5-5-|
E|---------------------------------------------|

Gtr. 3
D|-----------------------------------------------------------------|
A|-----------------------------------------------------------------|
F|-7-7-7-7-7-7-7-7-9-9-9-9-9-9-9-9-4-4-4-4-4-4-4-4-----------------|
C|-7-7-7-7-7-7-7-7-9-9-9-9-9-9-9-9-4-4-4-4-4-4-4-4-5-5-5-5-5-5-5-5-|
G|-5-5-5-5-5-5-5-5-7-7-7-7-7-7-7-7-2-2-2-2-2-2-2-2-5-5-5-5-5-5-5-5-|
D|-------------------------------------------------3-3-3-3-3-3-3-3-|

Gtr.1
D|------------------------------------------|
A|------------------------------------------|
F|-7-7-7-7-7-7-7-7-9-9-9-9-9-9-9-9-10-10-10-|
C|-x-x-x-x-x-x-x-x-x-x-x-x-x-x-x-x--x--x--x-|
G|-5-5-5-5-5-5-5-5-7-7-7-7-7-7-7-7--9--9--9-|
D|------------------------------------------|

E|----------------------------------------|
B|----------------------------------------|
G|-10-10-10-10-10-12-12-12-12-12-12-12-12-|
D|--x--x--x--x--x--x--x--x--x--x--x--x--x-|
A|--9--9--9--9--9-10-10-10-10-10-10-10-10-|
E|----------------------------------------|

Gtr. 2
D|----------------------------------------------|
A|----------------------------------------------|
F|-11-11-11-11-11-11-11-11-12-12-12-12-12-12-12-|
C|--x--x--x--x--x--x--x--x--x--x--x--x--x--x--x-|
G|--9--9--9--9--9--9--9--9-10-10-10-10-10-10-10-|
D|----------------------------------------------|

E|---------------------------------------------|
B|---------------------------------------------|
G|-12-11-11-11-11-11-11-11-11--7-7-7-7-7-7-7-7-|
D|--x--x--x--x--x--x--x--x--x--x-x-x-x-x-x-x-x-|
A|-10--9--9--9--9--9--9--9--9--5-5-5-5-5-5-5-5-|
E|---------------------------------------------|

Gtr. 3
D|-----------------------------------------------------------------|
A|-----------------------------------------------------------------|
F|-7-7-7-7-7-7-7-7-9-9-9-9-9-9-9-9-4-4-4-4-4-4-4-4-----------------|
C|-7-7-7-7-7-7-7-7-9-9-9-9-9-9-9-9-4-4-4-4-4-4-4-4-5-5-5-5-5-5-5-5-|
G|-5-5-5-5-5-5-5-5-7-7-7-7-7-7-7-7-2-2-2-2-2-2-2-2-5-5-5-5-5-5-5-5-|
D|-------------------------------------------------3-3-3-3-3-3-3-3-|

Gtr.1
D|------------------------------------------|
A|------------------------------------------|
F|-7-7-7-7-7-7-7-7-9-9-9-9-9-9-9-9-10-10-10-|
C|-x-x-x-x-x-x-x-x-x-x-x-x-x-x-x-x--x--x--x-|
G|-5-5-5-5-5-5-5-5-7-7-7-7-7-7-7-7--9--9--9-|
D|------------------------------------------|
 
 

Видео