Blink 182 - Dead Mans Curve, аккорды

Прокрутка
Тональность
Шрифт
100
ARTIST: BLINK 182
SONG  : DEAD MANS CURVE

this is a cover of an old 60's song by jan & dean...

INTRO (F#5):
G|---------------------|
D|-4---4---4---4--2----|
A|---4---4---4---------|
E|---------------------|

VERSE:
      F# > C# > F# > G# > F# >C# > F# > Hm > G# > F#

CD#ORUS:
      F# > Abm > B >

      G# > D > C# > G# > C#> B> > F#

INTERLUDE:
      D> Bm> G> C>

CD#ORD CD#ART:

   F#   C#   G#    Gm   Dm#    D
e|------2---------------6--------5----|
B|-2----4----9----------7----4---7----|
G|-3----4----10----4----8----5---7----|
D|-4----4----11----6----8----6---7----|
A|-4----2----11----6----6----6---5----|
E|-2---------9-----4---------4--------|

                    baz ryley: jack_meof@hotmail.com